Oops, an error
Loading. Please wait.

Amnesia Bass Tab

137 views 3 this week
no commentswrite comment
1 2 3 4 5
2 more votes to show rating
add to favorites
launch autoscroll
font size
0
reset
guitar tuner
×
Best way to learn
"Amnesia"
Autoscroll
slow
fast
+/-
esc
set tempo
stop
Intro
  F#m
G|------------------------------------------------------|
D|-----------------4-------4------------4------4--------|
A|-----4-----4---4---4---4---4-----4------4?-4---4------|
E|2-2-2---2-2---2------2-------2-2---2-2----2------2-4-5|

  Riff 1         Riff 2
  F#m            C#m           F#m           C#m
G|--------------|-----------||--------------------------||
D|--------------|-----6h7b6-||.-------------------6h7b6.|| x 2
A|--------------|x4-x4------||.--------------x4-x4-----.||
E|2-2-4-4h5-4-2-|-----------||-2-2-4-4h5-4-2------------||

  F#m           C#m 
G|--------------------------|
D|----------------6-4-6---6-|
A|--------------4-------4---|
E|2-2-4-4h5-4-2-------------|

Mujer...                       Te vi...               Ha pasado...
        F#m C#m F#m C#m F#m C#m F#m C#m F#m C#m F#m C#m F#m C#m
G|---------------------------------------------------------------|
D|                                                               | 
A| Riff: 1 2 1 2 1 2 1 ?4-2---2- 1 2 1 2 1 2 1 ?4-2---2- 1 2 1 2 |
E|--------------------------4-----------------------4------------|

                                              Amnesia...
  Em              D           C#m             F C F C F C
G|----------------------7-----------6-----------------------|
D|-----9----9---------7---7-------6---6---------------------|
A|7-10---10---10s-5-5-------5-4-4-------4-4-4---3---3---3---|
E|--------------------------------------------1---1---1-----|

  Solo de metales...
  F#m     C#m     F#m       C#m              F#m
G|------------------------------------------------------------
D|----------6---6---------------------------------------------
A|--------4---7---9-9-12-11------11-12-11----9-9-11-11s12-11-9
E|2-4-5-4-------------------9-12----------12------------------

  C#m
G -----------------|
D -----11-12-11----|
A 9-12----------12-|
E -----------------|

De aquí en adelante sigue igual...

dudas, preguntas y comentarios escribe a:
laburka@
Suggest correction
Give kudos to tab author, rate the tab!
1 2 3 4 5
comments
print report bad tab
guest
You may want to rate the tab now too:
select rating
Wanna post a correction for this tab? Suggest correction