Oops, an error
Loading. Please wait.

Cara De Chango Bass

26 views 1 this week
no commentswrite comment
1 2 3 4 5
3 more votes to show rating
add to favorites
×
Save as Personal and add changes to this tab that will be seen only by you. Learn more ›
×
You can save this tab as Personal to edit and correct it or add notes. All changes will be seen only by you. Learn more »
save as personal
new!
launch autoscroll
font size
0
reset
guitar tuner
Autoscroll
slow
fast
+/-
esc
set tempo
stop
Este bajeo esta bien padre. 

Intro

E--------------------
A--2-2-2-2s9s2-------
D-------------------- X 8
G-----------------
	
E-------------------    --------------------
A--2-2-2-2-2-2-2-2--    ---2-2---2----------
D------------------2    -------2---2--------
G----------------   -----------------


Verso

E----------------------------
A---2-2----------------------
D--------4--2-2--------------
G-------------1-2-2-1---

En algunas partes del verso se escucha esto

E---------------
A--2-2----------
D-------4-3-2-1-
G---------------------------

Ya no quiero ver......
E----------------------
A--2-2-2-2-2-2-2-------
D-----------------2----
G---------------------------------

Esta es la parte donde sale el solo de teclado y canta:
Shiquiten...........

E------------------------
A--2-2-------------------
D-------4-3-2-2----------
G-----------------------1-2-2-1---

Al final del puente lleva este arreglo:

E---------------------
A----2----------------
D-------1-2-----------
G----------1-2-3------

EL resto se repite, solo es cuestion de poner atención a la canción.
Suggest correction
Give kudos to tab author, rate the tab!
1 2 3 4 5
comments
print report bad tab
guest
Wanna post a correction for this tab? Suggest correction