Oops, an error
Loading. Please wait.

Como Un Sol Tab

version 1
version 1

Whole song

71 views 1 this week
no commentswrite comment
1 2 3 4 5
3 more votes to show rating
add to favorites
launch autoscroll
font size
0
reset
how to read this tab
guitar tuner
×
Best way to learn
"Como Un Sol"
Autoscroll
slow
fast
+/-
esc
set tempo
stop
Esta canción esta muy chida, aquí tienen el solo


e--8-8-8--10--10-10--8-8-8--10--10-10--12-12-12--
B------------------------------------------------
G------------------------------------------------
D------------------------------------------------
A------------------------------------------------
E------------------------------------------------


e--10-10--9-9--8-8--7-7--6-6---------------------
B-----------------------------9--7--9--7--9--7---
G------------------------------------------------
D------------------------------------------------
A------------------------------------------------
E------------------------------------------------


e--8-8-8--10--10--12--10--12--10--12--8-8-8--10--
B------------------------------------------------
G------------------------------------------------
D------------------------------------------------
A------------------------------------------------
E------------------------------------------------


e--11-12-13-14-15-16-17-16-15-15-14-15-14--------
B------------------------------------------15----
G------------------------------------------------
D------------------------------------------------
A------------------------------------------------
E------------------------------------------------


Bueno eso es todo, nadamás escuchen la canción para
que le den el ritmo y espacios correctos.

Esta tablatura se la dedico a mi familia (por su apoyo)
y a mis amigos.
                   GRACIAS
Suggest correction
Give kudos to tab author, rate the tab!
1 2 3 4 5
comments
print report bad tab
guest
You may want to rate the tab now too:
select rating
Wanna post a correction for this tab? Suggest correction