Oops, an error
Loading. Please wait.

Como Un Sol Tab

version 3
version 3

Whole song

168 views 3 this week
no commentswrite comment
1 2 3 4 5
3 more votes to show rating
add to favorites
×
Save as Personal and add changes to this tab that will be seen only by you. Learn more ›
×
You can save this tab as Personal to edit and correct it or add notes. All changes will be seen only by you. Learn more »
save as personal
new!
launch autoscroll
font size
0
reset
how to read this tab
guitar tuner
Autoscroll
slow
fast
+/-
esc
set tempo
stop
Este es el solo de la cancion ,les asguro q esta bien al 100%
si gustan comparar con los otros compas. un saludo para la banda d
amecameca en especial para la banda "kactus" a todos
omar,jorge, luis el chile,rodrigo el bolas,jose carlos el paparoach,
aldrin,josue,el knijo,berna,ricardo el chayan,
se la dedico a mi hijo Joshua Gadiel y a Susana.

primera vuelta de bis  en A y segunda en cm7
            A                   F#m
           Cm7
e-----------------------------------------------------------------I
b----BIS[10-10-10h12/14--14 ] -17-17-17-15-15-14-14-12-12-10-10---I
g-----------------------------------------------------------------I
d-----------------------------------------------------------------I
a-----------------------------------------------------------------I
e-----------------------------------------------------------------I

     D                        Dm
e-----------------------------------------------------------------I
b-----------------------------------------------------------------I
g-------9-9-9h11-9h11-9h11--9b------------------------------------I
d-----------------------------------------------------------------I
a-----------------------------------------------------------------I
e-----------------------------------------------------------------I


           A
e-----------------------------------------------------------------I
b-----10-10-10h12/14--14 -17-15-14-17-15-14-----------------------I
g-----------------------------------------------------------------I
d-----------------------------------------------------------------I
a-----------------------------------------------------------------I
e-----------------------------------------------------------------I


          Cm7
e-----------------------------------------------------------------I
b-----10-10-10h12/14-15 -17-15-14--15-17--------------------------I
g-----------------------------------------------------------------I
d-----------------------------------------------------------------I
a-----------------------------------------------------------------I
e-----------------------------------------------------------------I

          F#m                                    D            F
e-----------------------------------------------------------------I
b-----------------------------------------------------------------I
g-----------------------------------------------------------------I
d-----------------------------------------------------------------I
a---------------------------------------------- --10--------------I
e-------12h14pff12--10h12pff--10--10h12-12-12/10------------------I

Despues de esto sigue con Bm7, Cm7 y f#m en el coro despues buelve
a las notas baces

( )=Bis= se repite dos veces
h =hammer
/ =slide
b =benggin precionan y levantan la cuerda,
 este sirve para suvir unos semitonos
pff= pull off

en vez de pff pueden hacer un slide;
osea en la ultima posocion en la cuerda d"e".

gracias carnales se q va a estar en la tablatura bien
por q yo nadamas me dedico a la musica

apollen al reggae y al ska nacional
gracias   "k@ctus"·
                                                             GADIEL
Suggest correction
Give kudos to tab author, rate the tab!
1 2 3 4 5
comments
print report bad tab
guest
Wanna post a correction for this tab? Suggest correction