Oops, an error
Loading. Please wait.

Sapen Los Gatos Tab

23 views 1 this week
no commentswrite comment
1 2 3 4 5
3 more votes to show rating
add to favorites
launch autoscroll
font size
0
reset
how to read this tab
guitar tuner
Autoscroll
slow
fast
+/-
esc
set tempo
stop
Los Acordes son los mismos solo agregue la Tab.

Am               C
Sapen los gatos, sapen los gatos
E                            Am
Que saben los gatos de este baile
Am              C
Alza las manos, alza las manos
E                       Am
Si no levantas sos vigilante
Am               C
Sapen los gatos, sapen los gatos
E                            Am
Que saben los gatos de este baile
Am              C
Alza las manos, alza las manos
E                       Am
Si no levantas sos vigilante
E                       Am
si no levantas sos vigilante

Tab:

                        _________x2____________
                       |                       |
e|-5-5-5-5--7-7-7-7-5-12-12-12-12-10-10-10-8-5--| Hace
B|--------3-------------------------------------|  una
G|----------------------------------------------|Pausita


e|-12--16--12--16--12-12-12-12-10-10-10-8-5-----------| Sigue
B|-------------------------------------------5--9-5--9|
G|----------------------------------------------------| Abajo

e|------------------|
B|-5-5-5-5-3-3-3-0--|
G|-----------------2|
Suggest correction
Give kudos to tab author, rate the tab!
1 2 3 4 5
comments
print report bad tab
guest
Wanna post a correction for this tab? Suggest correction