Oops, an error
Loading. Please wait.

Restaurant Tab

17 views 1 this week
no commentswrite comment
1 2 3 4 5
3 more votes to show rating
add to favorites
launch autoscroll
font size
0
reset
how to read this tab
guitar tuner
×
Best way to learn
"Restaurant"
Autoscroll
slow
fast
+/-
esc
set tempo
stop
C
 Te vi temprano en la cocina no imagine lo que sentias
Dm                                  C
estabas tan palida como el rayo de sol ke entraba por la ventana

no me atrevi a preguntar pense ke todo iva a kavar
Dm                              C           C
todo este tiempo tuve miedo de este momento.
C             Dm       C
uuuuuuuuuuu          uuuuuuuuuuuuu
C
y por la noche llegue trankilo y no te senti no estabas
Dm                    C
ai entonces fue kuando entendi
C
se hacia tarde y no te via venir fue kuando la
Dm             C
vi una nota en el buro

coro:
Dm          C          Dm         C
y no sabes komo duele y no sabes aaaaaaaa
C
te vi temprano en la cocina no imagine lo que sentias
Dm                             C
todo este tiempo tuve miedo de este moment

   uuuuuuuuuuuuuuuuuuuuuu
e-------------------------
b-------------------------
G-------------------------
D-----5---7--5------5---7-
A---3---3------7--3---3---
E-------------------------

e-----------------------------------------
b-----------------------------------------
G-----------------------------------------
D-----------------------------------------
A---0--3--0--5--5--3--5--5--3--7--5--3--5-
E-----------------------------------------

e-----------------------------
b-----------------------------
G-----------------------------
D-----------------------------
A---5--3--5--5--3--7--5--3--5-
E-----------------------------
    uuuuuuuuuuuuuuuuuuuuuu
e--------------------------
b--------------------------
G--------------------------
D--------------------------
A---0--7--0--3--0--7--0--3-
E--------------------------

Dm         C          Dm         C
y no sabes komo duele y no sabes aaaaaaaa
Dm         C              Dm          C         G
y no sabes komo dueleeeeee y no sabes aaaaaaaaaaaaa
                                           e--------------------
                                           b--------------------
                                           G--------------------
                                           D-----5---7--5-------
                                           A---3---3------7--3--
                                           E--------------------
Suggest correction
Give kudos to tab author, rate the tab!
1 2 3 4 5
comments
print report bad tab
guest
You may want to rate the tab now too:
select rating
Wanna post a correction for this tab? Suggest correction