Oops, an error
Loading. Please wait.

10 Millones Tab

version 3
version 3

Whole song

23 views 1 this week
no commentswrite comment
1 2 3 4 5
3 more votes to show rating
add to favorites
launch autoscroll
font size
0
reset
how to read this tab
guitar tuner
×
Best way to learn
"10 Millones"
Autoscroll
slow
fast
+/-
esc
set tempo
stop
INTRO
1 ----------------------------------------------------|
2 ----------------------------------------------------|
3 -6-7-6-6-7-6-6-7-6-9-9-7-6--------------------------|
4 -7-7-7-7-7-7-7-7-7-9-9-7-7--------------------------|
5 ----------------------------------------------------|
6 ----------------------------------------------------|


VERSO
1 ---------------------------------------------|
2 -2  2  2  2  2  2  2  2  2-------------------|
3 -2  2  2  2  2  2  2  2  2-------------------|
4 -2  2  2  2  2  2  2  2  2-------------------|
5 ---------------------------------------------|
6 ---------------------------------------------|
   \/ \/ \/ /\ \/ /\ \/ /\ \/

CORO Pt1
1 -------------------|    |-------------------|    |-------------|
2 -------------------|    |-------------------|    |-------------|
3 -88888888--101010--|\   |-88888887----------|\   |-8888888-5---|
4 -88888888--101010--|-x2 |-88888887----------|-x2 |-8888888-5---|
5 -66666666-- 8-8-8--|/   |-66666665----------|/   |-6666666-3---|
6 -------------------|    |-------------------|    |-------------|

CORO Pt2
1 -------------------|    |-------------------|    |--------------------------------------------------------|
2 -------------------|    |-------------------|    |--------------------------------------------------------|
3 -88888888--101010--|\   |-88888887----------|\   |-555555555--888888888--101010101010101010--888888888--5-|
4 -88888888--101010--|-x2 |-88888887----------|-x2 |-555555555--888888888--101010101010101010--888888888--5-|
5 -66666666--8-8-8---|/   |-66666665----------|/   |-333333333--666666666-- 8 8 8 8 8 8 8 8 8--666666666--3-|
6 -------------------|    |-------------------|    |--------------------------------------------------------|

INTERMEDIO Pt1
1 ------------------------------------------|
2 ------------------------------------------|
3 -6-7-6-6-7-dejar-sonar--6-7-6-6-7/9-9-----|
4 -7-7-7-7-7-dejar-sonar--7-7-7-7-7/9-9-----|
5 ------------------------------------------|
6 ------------------------------------------|

INTERMETIO Pt2
1 ----------------------------------------------|
2 ----------------------------------------------|
3 -7xx7xx7xx7xx9xx9xx9xx975xx5xx5xx57-----------|
4 -----------------------------------7xx7xx7xx7-|
5 ----------------------------------------------|
6 ----------------------------------------------|

SOLO
1 ----------------------------------------|
2 -----------10-10-5-5--------------------|
3 -5/9-9-9-5-----------5-5/7-5-5/3--------|
4 ----------------------------------------|
5 ----------------------------------------|
6 ----------------------------------------|

FINAL INTERMEDIO
1 -----------------------------|
2 -----------------------------|
3 -6-7-7-6-7-7-6-7-------------|
4 -7-7-7-7-7-7-7-7-------------|
5 -----------------------------|
6 -----------------------------|

FINAL
1 -------------------------------------------------------------------------------------------------|
2 -------------------------------------------------------------------------------------------------|
3 -6-7-6-6-7-6-6--6-7-9-11/9-9-9--6-7-9-13/11-11-11--6-7-9-11/9-9-9--6-7-9------------------6------|
4 -7-7-7-7-7-7-7--7-7-9-11/9-9-9--7-7-9-13/11-11-11--7-7-9-11/9-9-9--7-7-9-7-dejar-sonar---------7-|
5 -------------------------------------------------------------------------7-dejar-sonar-----------|
6 -------------------------------------------------------------------------------------------------|

                .: ORDEN DE LA CANCION :.
 

     INTRO x5
     VERSO x8
     CORO Pt1 x1
     INTRO x4
     VERSO x8
     CORO Pt2 x1
     INTERMEDIO Pt1 x1
     INTERMEDIO Pt2 x2 -> NOTA: en la segunda parte de este intermedio comienza el SOLO pero si 
     SOLO x1                    solo hay una guitarra tocalo una vez y pasate al SOLO
     FIN INTERMEDIO x1 
     CORO Pt2 x1    -> NOTA: en este coro la parte final \  3|---5---|
     FINAL x2                se toca 8 veces              > 4|---5---|
                                                         /  5|---3---|

Creo que esta bien, espero que la disfruten

             eeeee    ooooo    y   y
             e        o   o     y y
             eee   0  o   o  0   y
             e        o   o      y
             eeeee    ooooo      y
Suggest correction
Give kudos to tab author, rate the tab!
1 2 3 4 5
comments
print report bad tab
guest
You may want to rate the tab now too:
select rating
Wanna post a correction for this tab? Suggest correction