Oops, an error
Loading. Please wait.

69 Bass Tab

25 views 1 this week
no commentswrite comment
1 2 3 4 5
3 more votes to show rating
add to favorites
launch autoscroll
font size
0
reset
guitar tuner
×
Best way to learn
"69"
Autoscroll
slow
fast
+/-
esc
set tempo
stop
BASE

G-----------------------------
D-----------------------------
A--------------6-----4-----2--
E-1-1---7-7-7-----5-----3-----


ESTRIBILLO

G-----------------------------
D-----------------------------
A-----------------------------
E-1--1--7-7-7--6--5--4--3--2--

FINAL
e-----------------------------
B-----------------------------                  \*/= Solo la primera vez
G----------------------------- 
D-----------------------------
A-----------------6-6--8-6--8-
E-1-1--5/6/7/-8-8-------------
  \*/
INTRO: BASE (X4)

(Todo sobre BASE)
No atiendas ese teléfono 
Buscando placer intenso 
Prefiero una cama grande 
Lo hago mejor 
Lubrico con mi saliva
Te mojo con mi saliva
Lo hago mejor
Penetro mejor

(Sobre ESTRIBILLO)
Mami! Se-se-se-sesenta y nueve! 
Mami! Se-se-se-sesenta y nueve! 

BASE (X4)

(Todo sobre BASE)
Esos gemidos dulces
Son un lenguaje extraño
Empiezo a escupirte
Empiezo a patearte
Mientras mi orín te moja
Me estoy obsesionando
Gime como una mula
Gime con un caballo

(Sobre ESTRIBILLO)
Mami! Se-se-se-sesenta y nueve! 
Mami! Se-se-se-sesenta y nueve! 

RIFF

FINAL (X4)
Suggest correction
Give kudos to tab author, rate the tab!
1 2 3 4 5
comments
print report bad tab
guest
You may want to rate the tab now too:
select rating
Wanna post a correction for this tab? Suggest correction