Oops, an error
Loading. Please wait.

69 Tab

version 1
version 1

Whole song

27 views 1 this week
no commentswrite comment
1 2 3 4 5
3 more votes to show rating
add to favorites
launch autoscroll
font size
0
reset
how to read this tab
guitar tuner
Autoscroll
slow
fast
+/-
esc
set tempo
stop
Help us to improve Ultimate-Guitar.com Take our survey!
×
RIFF
e------------
B------------
G------------
D-6--6--6--6-
A-6--6--6--6-
E-4--4--4--4-

BASE
e-----------------------------
B-----------------------------
G--------------8-----6-----4--
D-3-3---9-9-9--8--7--6--5--4--
A-3-3---9-9-9--6--7--4--5--2--
E-1-1---7-7-7-----5-----3-----

NOTA: Esta parte, la guitarra la hace solo en las partes que no se cantan.
      Si se toca en grupo, en la parte cantada solo toca el bajo, y la guitarra hace 
      el primer acorde en cada estrofa (F5).

ESTRIBILLO
e-----------------------------
B-----------------------------
G-----------------------------
D-3--3--9-9-9--8--7--6--5--4--
A-3--3--9-9-9--8--7--6--5--4--
E-1--1--7-7-7--6--5--4--3--2--

FINAL
e--------------------------------
B--------------------------------                  \*/= Solo la primera vez
G-------------------8-8--10-8-10-
D-3-3--7/8/9/10-10--8-8--10-8-10-
A-3-3--7/8/9/10-10--6-6---8-6--8-
E-1-1--5/6/7/-8--8---------------
  \*/
INTRO: RIFF - BASE (X4)

(Todo sobre BASE)
No atiendas ese teléfono 
Buscando placer intenso 
Prefiero una cama grande 
Lo hago mejor 
Lubrico con mi saliva
Te mojo con mi saliva
Lo hago mejor
Penetro mejor

(Sobre ESTRIBILLO)
Mami! Se-se-se-sesenta y nueve! 
Mami! Se-se-se-sesenta y nueve! 

BASE (X4)

(Todo sobre BASE)
Esos gemidos dulces
Son un lenguaje extraño
Empiezo a escupirte
Empiezo a patearte
Mientras mi orín te moja
Me estoy obsesionando
Gime como una mula
Gime con un caballo

(Sobre ESTRIBILLO)
Mami! Se-se-se-sesenta y nueve! 
Mami! Se-se-se-sesenta y nueve! 

RIFF

FINAL (X4)


Eso es todo, para comentarios, pedidos, puteadas, etc. 
mandenmen un mail a neotokio3@

AGUANTE EL OTRO YO!!!!
LA CUMBIA ES UNA MIERDA!!!!
Suggest correction
Give kudos to tab author, rate the tab!
1 2 3 4 5
comments
print report bad tab
guest
You may want to rate the tab now too:
select rating
Wanna post a correction for this tab? Suggest correction