Oops, an error
Loading. Please wait.

69 Tab

version 2
version 2

Whole song

24 views 1 this week
no commentswrite comment
1 2 3 4 5
3 more votes to show rating
add to favorites
launch autoscroll
font size
0
reset
how to read this tab
guitar tuner
×
Best way to learn
"69"
Autoscroll
slow
fast
+/-
esc
set tempo
stop
(afinación stándar)

Intro

|-----------------------------------------|
|-----------------------------------------|
|-----------------------------------------|
|-3-3/9-9-9---8---7---9---8---7-|
|-3-3/9-9-9---8---7---9---8---7-|
|-1-1/7-7-7---6---5---7---6---5-|
 

No atiendas ese teléfono 
Buscando placer intenso 
Prefiero una cama grande 
Lo hago mejor 

Esos gemidos dulces
Son un lenguaje extraño
Empiezo a escupirte
Empiezo a patearte

Lubrico con mi saliva
Te mojo con mi saliva
Lo hago mejor
Penetra mejor

Mientras mi orín te moja
Me estoy obsesionando
Gime como una mula
Gime con un caballo

Coro:

|-----------------------------------|
|-----------------------------------|
|-----------------------------------|
|-3-3/9-9-9-9--7--6--5--4-|
|-3-3/9-9-9-9--7--6--5--4-|
|-1-1/7-7-7-7--5--4--3--2-|  

Mami! Se-se-se-sesenta y nueve! Ou-ou-ou-ou!

|----------------------------------|-------------------------------|
|----------------------------------|-------------------------------|
|----------------------------------|-------------------------------|
|----------------------------------|-------------------------------|
|-3/4/5/6/3-3-3-5-7-5-7-|-3/4/5/6/3-3-3-5-7-7-|
|-3/4/5/6/3-3-3-5-7-5-7-|-3/4/5/6/3-3-3-5-7-7-|

Ou... Ou.

|----------------------------------|----------------------------------|
|----------------------------------|----------------------------------|
|----------------------------------|----------------------------------|
|----------------------------------|----------------------------------|
|-3/4/5/6/3-3-3-5-7-5-7-|-3/4/5/6/3-3-3-2-1-1-1-|
|-3/4/5/6/3-3-3-5-7-5-7-|-3/4/5/6/3-3-3-2-1-1-1-|

Ou... Ou-Ou-Ou-Ou-Ou.

|-----------------------------------|
|-----------------------------------|
|---------2-2-2/6---------------|
|-1-1-1-----------5-7-5-4-3-|
Suggest correction
Give kudos to tab author, rate the tab!
1 2 3 4 5
comments
print report bad tab
guest
You may want to rate the tab now too:
select rating
Wanna post a correction for this tab? Suggest correction