Oops, an error
Loading. Please wait.

Ad90 Bass Tab

31 views 3 this week
no commentswrite comment
1 2 3 4 5
3 more votes to show rating
add to favorites
launch autoscroll
font size
0
reset
guitar tuner
×
Best way to learn
"AD90"
Autoscroll
slow
fast
+/-
esc
set tempo
stop
RIFF 1
G-------------------------------------------------
D-------------------------------------------------
A-------------------------------------------------
E-2-2--2-2-2--6-6--6-6-6--2-2--2-2-2--6-6---9--9--

RIFF 2
G------------------------------
D------------------------------
A-4-----4-----3-4-3-4-3-4-3-4--
E----4-----4-------------------

RIFF 3
G----------------------------------------
D----------------------------------------
A-5--5--------5--5--------5--5-----------
E-------4--4--------5--5--------4--4--7--

RIFF 4
G----------------------------------------
D----------------------------------------
A-2-----2-----2-----5--2-----2-----------
E----2-----2-----2--------2-----2--5-5-5-

RIFF 5

G-------------------
D-------------------
A-------------------
E-2--2--2--5--5--5--

INTRO= RIFF 1 (X2)

(Sobre RIFF 1)
SIGUE Y SIGUE POR LA TELEVISION
EL CIRCO DE LOS POLITICOS
LA EDUCACION BLA, BLA
LA EDUCACION BLA, BLA
LA EDUCACION BLA, BLA
LA EDUCACION 
NO SE INGLES, NADA DE POLITICA
MENOS DE COMPUTACION
NO SE INGLES, NADA DE POLITICA
MENOS DE COMPUTACION

(Sobre RIFF 2)
CONFUSION, FRUSTRACION
NO SE, NO SE, NO SE, NO SE

(Sobre RIFF 3)
A.D. 90 SOY, A.D. 90 SOY
A.D. 90 SOY, AH!
A.D. 90 SOY, A.D. 90 SOY
A.D. 90 SOY, AH!
A.D. 90 SOY, A.D. 90 SOY
A.D. 90 SOY, AH!
A.D. 90 SOY, A.D. 90 SOY
A.D. 90 SOY, AH!

RIFF 4 (X2)

(Sobre RIFF 1)
SIGUE Y SIGUE POR LA TELEVISION
EL CIRCO DE TODOS LOS DIAS
1970
1980
1990
1990
NO SE SI ENTENDES, NO SE SI COMPRENDES
ADOLESCENTE A.D. 90
LA CONFUSION TOTAL
LA CONFUSION MORAL
LA CONFUSION SOCIAL
LA CONFUSION 

(Sobre RIFF 2)
CONFUSION, FRUSTRACION
NO SE, NO SE, NO SE, NO SE

(Sobre RIFF 3)
A.D. 90 SOY, A.D. 90 SOY
A.D. 90 SOY, AH!
A.D. 90 SOY, A.D. 90 SOY
A.D. 90 SOY, AH!
A.D. 90 SOY, A.D. 90 SOY
A.D. 90 SOY, AH!
A.D. 90 SOY, A.D. 90 SOY
A.D. 90 SOY, AH!

RIFF 4 (X2)

RIFF 5 (x4)
Suggest correction
Give kudos to tab author, rate the tab!
1 2 3 4 5
comments
print report bad tab
guest
You may want to rate the tab now too:
select rating
Wanna post a correction for this tab? Suggest correction