Oops, an error
Loading. Please wait.

Analia Tab

1 view 1 this week
no commentswrite comment
1 2 3 4 5
3 more votes to show rating
add to favorites
launch autoscroll
font size
0
reset
how to read this tab
guitar tuner
Autoscroll
slow
fast
+/-
esc
set tempo
stop
Help us to improve Ultimate-Guitar.com Take our survey!
×
Analía-Los hijos de Alien.


Intro: 
e|------------------------------------------------------------------|
B|------------------------------------------------------------------|
G|--6--------------------------------------------------------------|
D|--4---------4--------8----6----8---6-------------------------|
A|--4---------4--------8----6----8---6-------------------------|
E|-------------2-------6-----4---6----4------------------------|
   C#5     F#5    A#5 G#5


C#5   F#5    (A#5 G#5 A#5 G#5)esta parte LA hace con Slide. X2.

1er Verso:
sigue haciendo C#5 entrecortado y con un poco de palm muted 
mientras el bajo hace la base.


Estribillo (igual que la intro)


1er solo de viola:
e|-------------------------------------------------------------------------------------------------|
B|------------66-77-99-77-66--------------66-77-9-------------------------------------|
G|---66-88-----------------------88-66-88---------------0(pm)--------------------------|
D|-----------------------------------------------------------------------------------------------|
A|------------------------------------------------------------------------------------------------|
E|-----------------------------------------------------------------------------------------------|

e|----------------------------------------------------------------------------------------------|
B|--------6-7--9-7-6-7-6----------9------------------------------------------------------|
G|--6-8----------------------8-6-8--------------------6-------------------------------------|
D|-------------------------------------------------------4-(deja sonando)----------------|
A|-------------------------------------------------------4-------------------------------------|
E|--------------------------------------------------------------------------------------------|


2do Verso: lo mismo que el primero.

Pick Slide y 2do Estribillo.


Pre-solo:
e|----------------------9---------9--9--------------------------------------|
B|-------------------------9------9--9--------------------------------------|
G|--6--------------6-------6-----6--6--------------------------------------|
D|--4-----------------------------------------------------------------------|
A|--4-----------------------------------------------------------------------|
E|--------------------------------------------------------------------------|

2do Solo:
e|------------------------------------------------------------------|
B|------------------------------------------------------------------|
G|---5-5-5-5--7-5-7-5--7-/9-7------------------------------|
D|-----------------------------------------------------------------|
A|-----------------------------------------------------------------|
E|-----------------------------------------------------------------|X4


Termina con estribillo.


cualkier duda, sugerencia, comentario, lo que sea:

cececepe@   ó  cccp@

suerte!!
Suggest correction
Give kudos to tab author, rate the tab!
1 2 3 4 5
comments
print report bad tab
guest
You may want to rate the tab now too:
select rating
Wanna post a correction for this tab? Suggest correction