Oops, an error
Loading. Please wait.

Arriba Bass Tab

25 views 1 this week
no commentswrite comment
1 2 3 4 5
3 more votes to show rating
add to favorites
launch autoscroll
font size
0
reset
guitar tuner
Autoscroll
slow
fast
+/-
esc
set tempo
stop
Help us to improve Ultimate-Guitar.com Take our survey!
×
Esta es la base de bajo de la cancion 'Melodías Vibradoras' 
incluida en el disco 'Abrecaminos'. 
Para los tiempos, escuchen la canción.

Base 1

G-------------------------------------------------------------------------------------------
D-------------------------------------------------------------7-----------------------7-7-7-
A--5-5--5-7-9--5-5-5--7-5--9-9-9-9--7-5-5--7-5----5-5--5-7-9-----9-7-5--9-9-9-9--7-7--------
E-------------------------------------------------------------------------------------------

Base 2

G---3--3-3-3-3--2-----------3--3-3-3-3--2----3--3-3-3-3--2----------------------------
D------------------3-----3----------------------------------3-----2---3--2----2--5--4-
A---------------------5----------------------------------------5------------5---------
E-------------------------------------------------------------------------------------

Base 3

G-------------------------------------------
D-------------------------------------------
A--5-5--5-5--4-4-------5---5-5--4-4--7-7--5-
E-----------------5-5-----------------------

Base 4

G----------------
D----------------
A----------------
E--6-6--6-6--5-5-

Base 5

G----------------------
D----------------------
A--5-5--5-5--4-4-------
E-----------------5-5--

Intro (Base 1 x2)

(Sobre Base 2)
Es en el viento rosa
donde me sentís,
la lana abriga un soplo
en el anochecer...
En esas auras rosas
el color en mi boca,
la vida se ve de rosa
siempre que sueñes...

(Sobre Base 3)
Y a todos nos ven de arriba
en esta perra vida,
espíritus lloren!
siempre quieren volver.

(Sobre Base 4)
Perversa mi alma,
ángel liberame!
espíritu guía:
guíame!
Atravesando luces
en círculo celestial,
cambio de universo
a la realidad.

(Sobre Base 5)
Si todo sale bien reencarnaré
en esta navidad
para quedarme.

Eso es todo, para comentarios, pedidos, puteadas, etc. 
mandenmen un mail a neotokio3@

AGUANTE EL OTRO YO!!!!
LA CUMBIA ES UNA MIERDA!!!!
Suggest correction
Give kudos to tab author, rate the tab!
1 2 3 4 5
comments
print report bad tab
guest
You may want to rate the tab now too:
select rating
Wanna post a correction for this tab? Suggest correction