Oops, an error
Loading. Please wait.

Arriba Tab

26 views 3 this week
no commentswrite comment
1 2 3 4 5
3 more votes to show rating
add to favorites
×
Save as Personal and add changes to this tab that will be seen only by you. Learn more ›
×
You can save this tab as Personal to edit and correct it or add notes. All changes will be seen only by you. Learn more »
save as personal
new!
launch autoscroll
font size
0
reset
how to read this tab
guitar tuner
Autoscroll
slow
fast
+/-
esc
set tempo
stop
Estos son los Acordes:

    E A D G B E
A#5 4 6 6 X X X
A5  5 7 7 X X X
C#5 X 4 6 6 X X
D5  X 5 7 7 X X

RIFF 1
e-19--15--10-10-10--12-10-- X2 --19--19-19-19--17--15---10--12--10--
B--------------------------    -------------------------------------

RIFF 2
e----3---------------------------------------3---------------------------
B-2--------2---------4--2--4--2-----------2--------2---------4--2--4--2--
G-------3-----4--4-4-------------4-4-4----------3-----4--4-4-------------
D------------------------------------------------------------------------
A------------------------------------------------------------------------
E------------------------------------------------------------------------

RIFF 3
e--------------------
B--------------------
G--------------------
D--------------5--4--
A-8--7--5--7---------
E--------------------

RIFF 4
e-2--2----------------    --2--2-------------------------------------
B------3--3--2--2--3-- X2 --------3--3--2----------------------------
G---------------------    -----------------2-------------------------
D---------------------    ----------------------3--2--0--2---5--4----
A---------------------    -------------------------------------------
E---------------------    -------------------------------------------

RIFF 5
e-2--2-------------    -----------------
B--------3--3---2-- X3 -----------------
G------------------    -----------------
D------------------    --3--2--0--2--0--
A------------------    -----------------
E------------------    -----------------

RIFF 6
e-----------------------------------
B-----------------------------------
G-----------------------------------
D-----------------------------------
A-----------------------------4-----
E-4--5--7---5--4--5--4-4---7-----7--

A#5        A5
  Es en el viento rosa
A#5           A5
  donde me sentís,
A#5        A5
  la lana abriga un soplo
RIFF 3  
  en el anochecer...

A#5       A5
  En esas auras rosas
A#5              A5
  el color en mi boca,
A5           A5
  la vida se ve de rosa
RIFF 3
  siempre que sueñes...

(Sobre RIFF 4)
  Y a todos nos ven de arriba
  en esta perra vida,
  espíritus lloren!
  siempre quieren volver.

A#5           A5
  Perversa mi alma,
A#5       A5
  ángel liberame!
A#5        A5
  espíritu guía:
C#5         D5
  guí - a - me!
A#5     A5
  Atravesando luces
A#5          A5
  en círculo celestial,
A#5         A5
  cambio de universo
C#5         D5
  a la realidad.

(Sobre RIFF 5)
  Si todo sale bien reencarnaré
  en esta navidad
  para quedarme.


  RIFF 6 (X2)

A#5           A5
  Perversa mi alma,
A#5       A5
  ángel liberame!
A#5        A5
  espíritu guía:
C#5         D5
  guí - a - me!
A#5     A5
  Atravesando luces
A#5          A5
  en círculo celestial,
A#5         A5
  cambio de universo
C#5         D5
  a la realidad.

(Sobre RIFF 5)
  Si todo sale bien reencarnaré
  en esta navidad
  para quedarme.

Eso es todo, para comentarios, pedidos, puteadas, etc. 
mandenmen un mail a neotokio3@

AGUANTE EL OTRO YO!!!!
LA CUMBIA ES UNA MIERDA!!!!
Suggest correction
Give kudos to tab author, rate the tab!
1 2 3 4 5
comments
print report bad tab
guest
Wanna post a correction for this tab? Suggest correction