Oops, an error
Loading. Please wait.

Arruncha Bass

8 views 1 this week
no commentswrite comment
1 2 3 4 5
3 more votes to show rating
add to favorites
×
Save as Personal and add changes to this tab that will be seen only by you. Learn more ›
×
You can save this tab as Personal to edit and correct it or add notes. All changes will be seen only by you. Learn more »
save as personal
new!
launch autoscroll
font size
0
reset
guitar tuner
Autoscroll
slow
fast
+/-
esc
set tempo
stop
ARRUNCHA. de abrecaminos


Rulo de batería...
G-----------------------------------------------------------------------------------------|
D---7----------------7------------------7------------------7----------/9-----7------------|
A--------5-5---7---------5-----7-----------5-5-----7---------5----------------------------|
E-----------------------------------------------------------------------------------------|

G-----------------------------------------------------------------------------------------|
D-------------7---------7-------------7---------/9---7------------------------------------|
A--5-5---7------5-7------5-5---7-----5-7--------------------------------------------------|
E-----------------------------------------------------------------------------------------|


Hay cosas que no quiero saber...
G-----9----------------9-----------------8---------------8----------------9--------------9----|
D--7----------------7------------7---6---------------6----------------7--------------7--------|
A----------5---7-----------5--7-------------5---7----------5-6-7-----------5--7---------------|
E---------------------------------------------------------------------------------------------|

G----------------8---------------8--------------------------------------------------------------|
D---------7---6--------------6---------------9--------------------------------------------------|
A--5---7-------------5---7--------5---7---------------------------------------------------------|
E-----------------------------------------------------------------------------------------------|


..¿y si fuistes como eras como sos?..
G-----------------------------------------------------------------------------------15---12-----|
D---12-12-12-12-12-12-12-12----11/12/11*-11/12/11*-11/12/11*-11/12/11*--12----------------------|
A-----------------------------------------------------------------------------------------------|
E-----------------------------------------------------------------------------------------------|X3

G-------------------------------------------------------------------------------------------|
D---12-12-12-12-12-12-12-12---11/12*--11/12*--11/12*--11/12*--12--11--7---------------------|
A-------------------------------------------------------------------------------------------|
E-------------------------------------------------------------------------------------------|


...quiero que me lo demuestres...
G-------------------------------------------------------------------------------------------|
D--7-7--7-7--7-7--7-7---6-6--6-6----9-9--9-9------------------------------------------------|
A-------------------------------------------------------------------------------------------|
E-------------------------------------------------------------------------------------------|X3

G-------------------------------------------------------------------------------------------|
D-------------------------------------------------------------------------------------------|
A--7-7--7-7--7-7--7-7---6-6--6-6---8-7-6-8--------------------------------------------------|
E-------------------------------------------------------------------------------------------|


...solo se hacer una cosa bien...
G---------------------------------------------------------------------------------|
D--9-9-11-10-11-10---/15-/15----9-11-12-11-9---/7-/7------------------------------|
A---------------------------------------------------------------------------------|
E---------------------------------------------------------------------------------|

G---------------------------------------------------------------------------------|
D--9-10-11-12-11-10---/15-/15----9-10-11-10-9---/7-/7-----------------------------|
A---------------------------------------------------------------------------------|
E---------------------------------------------------------------------------------|

G---------------------------------------------------------------------------------|
D--9-10-11-12-11-10---/12-/12----9-10-11-10-9-10---/17-18-/19---------------------|
A---------------------------------------------------------------------------------|
E---------------------------------------------------------------------------------|

...quiero que me lo demuestres...
G---------------------------------------------------------------------------------------|
D--7-7-7-7--7-7-7-7--6-6--6-6--9-9--9-9-------------------------------------------------|
A---------------------------------------------------------------------------------------|
E---------------------------------------------------------------------------------------|X4


...un castigo que te merecias...
G----------------------------------------------------------------------------|
D--7-7-7-7--7-7-7-7--9-9--9-9---14-14-13-14-14-------------------------------|
A----------------------------------------------------------------------------|
E----------------------------------------------------------------------------|

G-------------------------------------15----15----15-------------------------|
D--7-7-7-7--7-7-7-7---13-13-----13----13----13-[12]--------------------------|
A----------------------------------------------------------------------------|
E----------------------------------------------------------------------------|

G--------------------------------------------------------------------------------|
D--7-7-7-7--6-6-6-6--9-9-9-9--7-7-7-7--6-6-6-6--9-9-9-9----[7]---(11----9----7)--|
A--------------------------------------------------------------------------------|
E--------------------------------------------------------------------------------|

Turnarround de batería


G----------------------------------------------------------------------|
D--7--------7----------7----------------7-------------/9-----7---------|
A------5--5-----5--7------5--5---7-------5----7------------------------|
E----------------------------------------------------------------------|

G----------------7--------------------7----------7----------------------|
D--7----------7---7-----------7--------5--7------7----------------------|
A------5--7-----------5--7------------------------------5---7-----------|
E-----------------------------------------------------------------------|
..¿y si fuistes como eras como sos..?
G-------------------------------------------------14---12----------------|
D--12-12-12-12--12-12-12-12--11-11---12----------------------------------|
A------------------------------------------------------------------------|
E------------------------------------------------------------------------|X3

G------------------------------------------------------------------------|
D-12-12-12-12-12-12-12---11/12/11*-11/12/11*------12-11------------------|
A------------------------------------------------------------------------|
E------------------------------------------------------------------------|


Solo de guitarra
G-------------------------------------------------------------------------|
D--7-7--7-7--7-7--7-7--4-4--4-4--2-2--2-2--5-5--5-5--5-5--5-5-------------|
A-------------------------------------------------------------------------|
E-------------------------------------------------------------------------|

G--------------------------------------------------------------------------|
D--7-7-7--77--77---7--7--7--4---44----5-555-5555--555--2-22--22--4-44--44--|
A--------------------------------------------------------------------------|
E--------------------------------------------------------------------------|

G--------------------------------------------------------------------------|
D--7-7--77--77--77--77---4-4-4-4---2-2-2-2--5555555555--2-2-2-2---4-4-4-4--|
A--------------------------------------------------------------------------|
E--------------------------------------------------------------------------|

G------------------------------------------------------------------------------------|
D--7-7--77--77--77----/9--4-4-4-4----2-2-2-2----5555555555----2-2-2-2--4-4-4-4---7---|
A------------------------------------------------------------------------------------|
E------------------------------------------------------------------------------------|


FIN
Los tiempos fijenselos en Abrecaminos.
Simbolitos
*  en esta parte del tema tenes que escuchar bien el CD, porke se arrastra 
entre las dos notas, si escuchas te vas a dar cuenta como hacerlo.
/  arrastra la nota
() turnarround del tema
[] dejar sonando la nota

Comentarios, dudas, sugerencias,etc...

cececepe@  ó  cccp@


suerte!
Suggest correction
Give kudos to tab author, rate the tab!
1 2 3 4 5
comments
print report bad tab
guest
Wanna post a correction for this tab? Suggest correction