Oops, an error
Loading. Please wait.

Arruncha Tab

16 views 1 this week
no commentswrite comment
1 2 3 4 5
3 more votes to show rating
add to favorites
launch autoscroll
font size
0
reset
how to read this tab
guitar tuner
×
Best way to learn
"Arruncha"
Autoscroll
slow
fast
+/-
esc
set tempo
stop
e-5--5-5-5-5--4-4-4--0-0---5-5-5-5--4-4-4--0-0---5-4-5--5-5-5-5-5--4-3-4--
B-5--5-5-5-5--5-5-5--0-0---5-5-5-5--5-5-5--0-0---5-5-5--5-5-5-5-5--5-4-5--
G-------------------------------------------------------------------------

A
  Hay cosas que no quiero saber
C#m
  y cosas que no quiero ser
A
  y no soy...
C#m
  y no soy...

(Sobre "punteo 1")                              punteo 1
¿Y si fuistes como eras como sos?               B-7-8-7-8--10-8-10-8--7-8-7-8--
¿Y si ahora ya cambiastes como sos?             G------------------------------

A                    C#m
  Quiero que me lo demuestres
A                      C#m
  el cambio entendible y natural

(Sobre "punteo 2")                              punteo 2
Solo se hacer una cosa bien                     D---------------5-5-5--
y hoy esta todo bien                            A-2-3-4-5--3-2---------

A                    C#m
  Quiero que me lo demuestres
A                      C#m
  el cambio entendible y natural
A                   C#m
  Un castigo que te merecias
A             C#m             A    C#m 
  la venganza paso por tu linea

e-5--5-5-5-5--4-4-4--0-0---5-5-5-5--4-4-4--0-0---5-4-5--5-5-5-5-5--4-3-4--
B-5--5-5-5-5--5-5-5--0-0---5-5-5-5--5-5-5--0-0---5-5-5--5-5-5-5-5--5-4-5--
G-------------------------------------------------------------------------

(Sobre "punteo 1")                              punteo 3
¿Y si fuistes como eras como sos?               A-3b4--5-----0/5--
¿Y si ahora ya cambiastes como sos?             E---------5-------

e-----------------------------------------------5-7b9rb7-5----5-7b9rb7-5--5/10--10-9--------
B--------------------------------3--3-2-------5-------------5------------------------12-10--
G-4b6-4b6-4b6-4b6--4b6-2--4b6-2---------4-2-------------------------------------------------
D-------------------------------------------------------------------------------------------
A-------------------------------------------------------------------------------------------
E-------------------------------------------------------------------------------------------

e--------------------------------------------------------------
B--------------------------------------------------------------
G------------------------------------6-6-7-6-7-9-7-6-7-6-7-6---
D------7---------------7-9--7-9-9b11------------------------7--
A-7--7---7--7-9-7--7-7-----------------------------------------
E--------------------------------------------------------------


Me di cuenta de unos errores, asi que paso a corregirlos:

el punteo 1 es en realidad asi:
                                                punteo 1
¿Y si fuistes como eras como sos?               B-7-8-7-8--10-8-10-8--10-8-10-8-
¿Y si ahora ya cambiastes como sos?             G------------------------------

el segundo "Y si fuistes como eras..." va en realidad con el punteo 3:

                                                punteo 3
¿Y si fuistes como eras como sos?               G-6b7--7------7------7---
¿Y si ahora ya cambiastes como sos?             D--------7--7---7--7---7--

y por ultimo, el final, que no pudo salir, por problemas en el archivo que lo mandé, es asi:

B-------------------------------------
G-6----6----6----6--4b6-(lentamente)--
D---7----7----7-----------------------

Ubiquense con la canción para ubicar el punteo 3 y el final.

Eso es todo, para comentarios, pedidos, puteadas, etc. mandenmen un mail a neotokio3@

AGUANTE EL OTRO YO!!!!
LA CUMBIA ES UNA MIERDA!!!!
Suggest correction
Give kudos to tab author, rate the tab!
1 2 3 4 5
comments
print report bad tab
guest
You may want to rate the tab now too:
select rating
Wanna post a correction for this tab? Suggest correction