Oops, an error
Loading. Please wait.

Aun Tab

version 1
version 1

Whole song

11 views 1 this week
no commentswrite comment
1 2 3 4 5
3 more votes to show rating
add to favorites
launch autoscroll
font size
0
reset
how to read this tab
guitar tuner
Autoscroll
slow
fast
+/-
esc
set tempo
stop
Help us to improve Ultimate-Guitar.com Take our survey!
×
La cancion esta en una base de Fa%(sostenido) y Sol

Hace el siguiente arpegio casi todo el tema

      F%                      
e-----------------
 -----------------
 --0---0---0------
 -4-4-4-4-4-4----- (Hay que adaptar los 
 -----------------  tiempos y las veces
E-----------------    que lo repite)

      G
e-----------------
 -----------------
 --0---0---0------
 -5-5-5-5-5-5-----
 -----------------
E-----------------

Aca esta el punteo del intro:

e---------------------------------------------------
 ---------------------------------------------------
 --------4-----------------4-----5-4-5--------------
 --4-5-7---7-5-------4-5-7---7-5-------5------------
 -------------5-7-8---------------------------------
E------------------8--------------------------------

Aca el punteo del medio:(1:20)

e---------------------------------------------------
 ---------------------------------------------------
 --------4-------------------------4-----5----------
 --4-5-7---7-5-4-5-4-5-4-5-7-4-5-7---7-5------------
 ---------------------------------------------------
E---------------------------------------------------

AWANTE EL OTRO YO!!
Suggest correction
Give kudos to tab author, rate the tab!
1 2 3 4 5
comments
print report bad tab
guest
You may want to rate the tab now too:
select rating
Wanna post a correction for this tab? Suggest correction