Oops, an error
Loading. Please wait.

Aun Tab

version 2
version 2

Whole song

8 views 1 this week
no commentswrite comment
1 2 3 4 5
3 more votes to show rating
add to favorites
launch autoscroll
font size
0
reset
how to read this tab
guitar tuner
Autoscroll
slow
fast
+/-
esc
set tempo
stop
Help us to improve Ultimate-Guitar.com Take our survey!
×
intro: 
e|--------------------------------------------|
B|--------------------------------------------|
G|------0----0----0----0----0----0----0----0--|
D|--------------------------------------------|
A|--5--5-5--5-5--5-5--5-3--3-3--3-3--3-3--3---|
E|--------------------------------------------|

estrofa: (Sobre intro)
En pompas de jabón, se irán con lo nuestro. Lo más importante, está más abajo.
Hay un cielo también, flotan las cosas. Tu vagia tambien es más profunda.

estribillo: 
e|----------------------------------------------------------|
B|----------------------------------------------------------|
G|-------0-------------0-------------0-------------0--------|
D|---------5----5--------5----5--------5----5--------5----5-|
A|--5--5------5---2--2------2---0--0------0---0--0------0---|
E|----------------------------------------------------------| 
     Aúuuuuuuuuuun Aúuuuuuuuuuun Aúuuuuuuuuuun Aúuuuuuun   
     Aún        hay    ilusiooooooooneeeeeeeeeeeessssss

Solo:
e|-------------------------------------------------------------------------------------|
B|-------------------------------------------------------------------------------------|
G|-------------------------------------------------------------------------------------|
D|-------------------------------------------------------------------------------------|
A|--9----10--12----14--12--10--9----10----9-10-9----10--12----10-9-10--14--12--10--15~-|
E|-------------------------------------------------------------------------------------|

estrofa: (Sobre intro)
Si te explicara, no entenderías. En pompas de jabón se irán nuestras vidas.
Tu vagina también, lo más importante. Hay un cielo también, hay un cielo también.

Estribillo (4 veces)

Repite intro

Final:

e|--------------------------|
B|--------------------------|
G|--------------------------|
D|--------------------------|
A|--9-10-9--7--3--2--3-5----|
E|--------------------------|
Suggest correction
Give kudos to tab author, rate the tab!
1 2 3 4 5
comments
print report bad tab
guest
You may want to rate the tab now too:
select rating
Wanna post a correction for this tab? Suggest correction