Oops, an error
Loading. Please wait.

Bajo La Guerra Chords

10 views 1 this week
no commentswrite comment
1 2 3 4 5
3 more votes to show rating
add to favorites
launch autoscroll
font size
0
reset
transpose
0
reset
display chords
guitar tuner
×
Best way to learn
"Bajo La Guerra"
Autoscroll
slow
fast
+/-
esc
set tempo
stop
con guitarra electro-acustica
intro:
e|-----------------|--0---0---0---0---0---0---0---0---0---0---0---0--|
A|-1-1-1-1-1-1-1-1-|--0---0---0---0---0---0---0---0---0---0---0---0--|
D|-0-0-0-0-0-0-0-0-|--1---1---1---1---1---1---1---1---1---1---1---1--|
G|-2-2-2-2-2-2-2-2-|--2---2---2---2---2---2---2---2---2---2---2---2--|
B|-3-3-3-3-3-3-3-3-|--2---2---2---2---2---2---2---2---2---2---2---2--|
E|-0-0-0-0-0-0-0-0-|--0---0---0---0---0---0---0---0---0---0---0---0--|
                     (esta parte es cuando entran todos)
en el verso no se soca.

estribillo:(hay que escucharlo para tocarlo)
e|-0-0-0-0-0-0-0-0-0-0-0-0-0-0-0-0-0-0-0-0--|
A|-1-1-1-1-1-1-1-1-0-0-0-0-0-0-0-0-0-0-0-0--|
D|-0-0-0-0-0-0-0-0-1-1-1-1-1-1-1-1-1-1-1-1--|
G|-2-2-2-2-2-2-2-2-2-2-2-2-2-2-2-2-2-2-2-2--|
B|-3-3-3-3-3-3-3-3-2-2-2-2-2-2-2-2-2-2-2-2--| 4x(hasta que termine el estribillo)
E|-0-0-0-0-0-0-0-0-0-0-0-0-0-0-0-0-0-0-0-0--|

intro:
e|--0---0---0---0---0---0---0---0---0---0---0---0--|
A|--0---0---0---0---0---0---0---0---0---0---0---0--|
D|--1---1---1---1---1---1---1---1---1---1---1---1--|
G|--2---2---2---2---2---2---2---2---2---2---2---2--|
B|--2---2---2---2---2---2---2---2---2---2---2---2--|
E|--0---0---0---0---0---0---0---0---0---0---0---0--|

pre verso:'no sabes donde...'
e|-0-0-0-0-0-0-0-0-0-0-0-0-0-0-0-0-0-0-0-0--|
A|-0-0-0-0-0-0-0-0-0-0-0-0-0-0-0-0-0-0-0-0--|
D|-1-1-1-1-1-1-1-1-1-1-1-1-1-1-1-1-1-1-1-1--|
G|-2-2-2-2-2-2-2-2-2-2-2-2-2-2-2-2-2-2-2-2--|
B|-2-2-2-2-2-2-2-2-2-2-2-2-2-2-2-2-2-2-2-2--| 
E|-0-0-0-0-0-0-0-0-0-0-0-0-0-0-0-0-0-0-0-0--|

verso:'te sacaron...'no se toca

estribillo:'en los techos rotos...'
e|-0-0-0-0-0-0-0-0-0-0-0-0-0-0-0-0-0-0-0-0--|
A|-1-1-1-1-1-1-1-1-0-0-0-0-0-0-0-0-0-0-0-0--|
D|-0-0-0-0-0-0-0-0-1-1-1-1-1-1-1-1-1-1-1-1--|
G|-2-2-2-2-2-2-2-2-2-2-2-2-2-2-2-2-2-2-2-2--|
B|-3-3-3-3-3-3-3-3-2-2-2-2-2-2-2-2-2-2-2-2--| 4x(mas o menos. fijense)
E|-0-0-0-0-0-0-0-0-0-0-0-0-0-0-0-0-0-0-0-0--|

punteo:(con electrica)
e|----------------------------------------------------------------------------------|
A|----------------------------------------------------------------------------------|
D|9-9-9-9-11-11-11-11-13-13-13-13-11-11-11-9-9-9-9-11-11-11-11-13-13-13-13-14-14-14-|
G|----------------------------------------------------------------------------------|
B|----------------------------------------------------------------------------------|
E|----------------------------------------------------------------------------------|
sigue abajo
e|---------------------------------------------------------------------------------------|
A|---------------------------------------------------------------------------------------|
D|14-13-11-9-9-14-13-11-9-9-11-9-9-9-11-9-9-9-11-9-9-9-9-11-11-11-11-13-13-13-13-14-14-14|
G|---------------------------------------------------------------------------------------|
B|---------------------------------------------------------------------------------------|
E|---------------------------------------------------------------------------------------|
sigue abajo
e|--------------------------------------------------------------------------|
A|--------------------------------------------------------------------------|
D|16-14-13-11-11-16-14-13-11-11-11-11-13-9---9-9-9-11-9--11-13-14-13-14-16--|
G|--------------------------------------------------------------------------|
B|--------------------------------------------------------------------------|
E|--------------------------------------------------------------------------|

final:'no sabes como seguir...'
e|--0---0---0---0---0---0---0---0---0---0---0---0--|
A|--0---0---0---0---0---0---0---0---0---0---0---0--|
D|--1---1---1---1---1---1---1---1---1---1---1---1--|
G|--2---2---2---2---2---2---2---2---2---2---2---2--|
B|--2---2---2---2---2---2---2---2---2---2---2---2--|
E|--0---0---0---0---0---0---0---0---0---0---0---0--|


aca va la cancion:

fantaciando lo proihbido
la mañana deprimido
la energia se diluge
todo siges vida
no sabes como seguir 
ya no ahi sueños que cumplir
nada nuevo que sentir
solo la muerte

no te vuelvas a caer
que te podes perdes
no ahi regerso esta vez
es que no te distecuenta que 
la vida era una fiesta en el fondo

en los techos rotos 
donde an estrellas
pierde el miedo el cielo 
sobre las cabezas
bajo la guerra
esta tu ser 
pierde el miedo el cielo 
sobre las cabezas
una nuve blanca
donde dormir
pierde el miedo el cielo
para escapar

no sabes dode escapar
a quien podes llamar
nadie acude
nadie atiende
te sacaron la energia
te robaron la alegria
donde esta tu fantacia
tu ilucion

en los techos rotos 
donde an estrellas
pierde el miedo el cielo 
sobre las cabezas
bajo la guerra
esta tu ser 
pierde el miedo el cielo 
sobre las cabezas
todo es libre ahora
corta las cadenas 
pierde el miedo el cielo
para escapar, para escapar
oohhh

no sabes como seguir 
ya no ahi sueños que cumplir
nada nuevo que sentir
solo la muerte
es que no te distecuenta que 
la vida era una fiesta en el fondo
-----------------------------------------------------------------------------------------
aclaracion:la cancion esta hecha con una guitarra de 12 cuerdas
pero aca la pongo como 6(mas o mesnos suena igual).

escuchen la cancion para darse cuenta de los tiempos.

Eso es todo, para comentarios, pedidos, puteadas, correccion etc. 
mandenmen un mail a gustavomenin@
Suggest correction
Give kudos to tab author, rate the tab!
1 2 3 4 5
comments
print report bad tab
guest
You may want to rate the tab now too:
select rating
Wanna post a correction for this tab? Suggest correction