Oops, an error
Loading. Please wait.

Caminando Tab

version 1
version 1

Whole song

44 views 1 this week
no commentswrite comment
1 2 3 4 5
3 more votes to show rating
add to favorites
launch autoscroll
font size
0
reset
how to read this tab
guitar tuner
Autoscroll
slow
fast
+/-
esc
set tempo
stop
Help us to improve Ultimate-Guitar.com Take our survey!
×
RIFF 1
e-----------------------------------------------------------
B--------------------------1--------------------------------
G-----0-2--3--3--2-3--2-3----------0-2--3--3--2-3--2--0-----
D---3----------------------------3-----------------------3--
A-3----------------------------3----------------------------
E-----------------------------------------------------------

RIFF 2
e----------------------------|-------------|  |----------------|   ---------------------------
B--------------------------1-|-------------|  |----------------|   ---------------------------
G-----0-2--3--3--2-3--2-3----|-4b5--4----4-|X2|-4--------------|X2 -4-------------4-----4-----
D---3------------------------|--------6----|  |----6-4--6-4----|   ----6-4----------4-6---6---
A-3--------------------------|-------------|  |--------------7-|   ----------7--7-----------7-
E----------------------------|-------------|  |----------------|   ---------------------------

RIFF 3
e-----------------------------
B-12--10-9--10--12--10--9-----
G--------------------------9--
D-----------------------------
A-----------------------------
E-----------------------------

NOTA: Solo en una parte de la canción hay acordes. En la parte en que no hay, el bajo 
      hace una base en FA. Si la tocas solo, podes hacerla tocando el acorde o el
      siguiente punteo:

e-------------------------
B-------------------------
G-------------------------
D-3--3--3--3--------------
A-------------3--3--3--3--
E-------------------------

INTRO= RIFF 1 (X2)

   CAMINANDO
   POR TU CUERPO MOJADO
G5                 A5   A#5  A5  F5
   DE LA COSTA, A TU    CA - A - RA
A#5         A5    G5  F5
   PARA NOSOTRO - OS

   RIFF 1 (X2)
 
   RESPIRANDO
   TUS PALABRAS GROSERAS
G5               A5   A#5  A5  F5
   CAMINANDO POR MIS  PE - E - LOS
G5              A5  C5  A#5   A5  A#5  A5  F5            
   RESPLANDECES EN  MIS SUE - E - ÑO - O - OS

   RIFF 2

   RIFF 3 (X2)
Suggest correction
Give kudos to tab author, rate the tab!
1 2 3 4 5
comments
print report bad tab
guest
You may want to rate the tab now too:
select rating
Wanna post a correction for this tab? Suggest correction