Oops, an error
Loading. Please wait.

Caminando Tab

version 2
version 2

Whole song

30 views 1 this week
no commentswrite comment
1 2 3 4 5
3 more votes to show rating
add to favorites
launch autoscroll
font size
0
reset
how to read this tab
guitar tuner
×
Best way to learn
"Caminando"
Autoscroll
slow
fast
+/-
esc
set tempo
stop
intro x2
1-----------------------------------------------------|
2-----------------------------------------------------|
3-----023323235----02332320---------------------------|
4---3------------3----------3-------------------------|
5-3------------3--------------------------------------|
6-----------------------------------------------------|

verso 1
1-0------0-------0------0---------0----------0--------|
2-0--------0-----0--------0-------0----------0--------|
3-1----1------1--1----1-----1-----1----------1--------|
4-2--2-----------2--2-------------2----------2--------|
5-2--------------2----------------2----------2--------|
6------------------------------0----------------------|

coro 1
1-----------------------------------------------------|
2-----------------------------------------------------|
3-----------------------------------------------------|
4-555555555555555-77-88888888-1010101010101010--------|
5-555555555555555-77-88888888-1010101010101010--------|
6-333333333333333-55-66666666-8 8 8 8 8 8 8 8---------|

verso 2
1-0------0------0---------------0-----------0---------|
2-0--------0----0------0--------0-----------0---------|
3-1----1-----1--1--------1------1-----------1---------|
4-2--2----------2----2-----2----2-----------2---------|
5-2-------------2--2------------2-----------2---------|
6----------------------------0------------------------|

coro 2
1----------------------------------------------------------------------------------|
2----------------------------------------------------------------------------------|
3----------------------------------------------------------------------------------|
4-555555555555555-77-888888888888888-555555555555555-77-88888888-1010101010101010--|
5-555555555555555-77-888888888888888-555555555555555-77-88888888-1010101010101010--|
6-333333333333333-55-666666666666666-333333333333333-55-66666666-8 8 8 8 8 8 8 8---|

intermedio 1 
1-----------------------------------------------------|
2 ----------------------------------------------------|
3 ----023323235-55-5-55--5------5-----5-----------5---|
4---3-------------7-7--75--75757-75757-75757-3-575----|
5-3---------------------------------------------------|
6-----------------------------------------------------|

intermedio 2
1-----------------------------------------------------|
2-17-15-14-15-17-15-14----17-15-14-15-17-15-14-15-14--|
3---------------------14----------------------------14|
4-----------------------------------------------------|
5-----------------------------------------------------|
6-----------------------------------------------------|

esta bien trancrita y en el intermedio 2 hay que escuchar 
la cancion para tocarla bien.
arriba el otro yo la mejor banda argentina.
Suggest correction
Give kudos to tab author, rate the tab!
1 2 3 4 5
comments
print report bad tab
guest
You may want to rate the tab now too:
select rating
Wanna post a correction for this tab? Suggest correction