Oops, an error
Loading. Please wait.

Colmena Tab

28 views 1 this week
no commentswrite comment
1 2 3 4 5
3 more votes to show rating
add to favorites
launch autoscroll
font size
0
reset
how to read this tab
guitar tuner
×
Best way to learn
"Colmena"
Autoscroll
slow
fast
+/-
esc
set tempo
stop
Este es un cover de los Red Hot Chili Peppers llamado My Lovely Man


e|-----------------------|--------------------------|-----------------------|
B|-----------------------|--------------------------|-----------------------|
G|-----------------------|----------_----7~~--_-----|-----------------------|
D|-----------------------|-7---5---7/9-------9\7-5--|-----------------------|
A|-7---5---7---5---7--5--|--------------------------|-7---5---7---5---7--5--|
E|-----------------------|--------------------------|-----------------------|

  (Am)

e|---------------------------|
B|---------------------------|
G|---------------------------|
D|---------------------------|
A|--_---------_----5---_-----|
E|-7s5---3---5/7------7\5-3--|

Verso
-----

     Riff A
     (Em)               (Am)                       (Em)


e||------------------------|--------------------------|-----------------------|
B||*-----------------------|--------------------------|-----------------------|
G||------------------------|----------_----7~~--_-----|-----------------------|
D||------------------------|-7---5---7/9-------9\7-5--|-----------------------|
A||*-7---5---7---5---7--5--|--------------------------|-7---5---7---5---7--5--|
E||------------------------|--------------------------|-----------------------|

  (Am)                        (Em)                    (Am)

e|---------------------------|-----------------------|------------------------------------|
B|---------------------------|-----------------------|--------------_------15----_--------|
G|---------------------------|-----------------------|-/14---12---14s16--------16s14--12--|
D|---------------------------|-----------------------|------------------------------------|
A|--_---------_----5---_-----|-7---5---7---5---7--5--|------------------------------------|
E|-7s5---3---5/7------7\5-3--|-----------------------|------------------------------------|

                                                         End Riff A
  (Em)                          (Am)


e|-----------------------------|----------------------------------|
B|-----------------------------|----------------------------------|
G|-----------------------------|----------------------------------|
D|-14---12---14---12---14--12--|--------------_-----12----_-------|
A|-----------------------------|-/12---10---12/14-------14\12-10--|
E|-----------------------------|----------------------------------|

  ____________________________________________________  __________________
 |1.                                                  ||2.                |
 |                                                    ||                  |
   N.C(E)
                                                        (Drums)
                                                                2

e|-------------------------|--------------------------||------------------|
B|-------------------------|-------------------------*||------------------|
G|-------------------------|--------------------------||------------------|
D|-------------------------|-6--4--6--4--6--4--6--4---||------------------|
A|-7--5--7--5--7--5--7--5--|-------------------------*||------------------|
E|-------------------------|--------------------------||------------------|

Estribillo

   Am7                            Bm7                              Em7
                                                             .            .  .  .
e|----------8---------8---x-8-8-|----------10---------10---x-10--|-----x--9--7-------9---7----|
B|----------8---------8---x-8-8-|----------10---------10---x-10--|-----x--8--8-------8---8----|
G|----------5---------5---x-5-5-|----------7----------7----x-7---|-7h9----------9-----------9-|
D|----5h7--------5h7------------|----7h9---------7h9-------------|----------------------------|
A|------------------------------|--------------------------------|----------------------------|
E|------------------------------|--------------------------------|----------------------------|


e|--------9--7-------9---7----|
B|--------8--8-------8---8----|
G|---7-9--------9-------------|
D|----------------------------|
A|----------------------------|
E|----------------------------|


-----------


e|--------9--7-------------------|
B|--------8--8-------------------|
G|---7-9--------9--9-9-(7-9)7----|
D|-------------------------------|
A|-------------------------------|
E|-------------------------------|


Interlude


   Am7)                      *(Bm7)

e|----------8--x-------x---x-x-x-|-x-x-x-x---x---x---x---x---x---x-|
B|----------8--x-------x---x-x-x-|-x-x-x-x---x---x---x---x---x---x-|
G|----------5--x-------x---x-x-x-|-x-x-x-x---x---x---x---x---x---x-|
D|----5h7--------5h7-------------|-x-x-x-x---x---x---x---x---x---x-|
A|-------------------------------|---------------------------------|
E|-------------------------------|---------------------------------|

  (Em7)

e|---x-x-x-x-x-x-x-x--x-x---x-x-x-|----x-x----x-x----x----x-x-x-|
B|---x-x-x-x-x-x-x-x--x-x---x-x-x-|----x-x----x-x----x----x-x-x-|
G|---x-x-x-x-x-x-x-x--x-x---x-x-x-|----x-x----x-x----x----x-x-x-|
D|---x-x-x-x-x-x-x-x--x-x---x-x-x-|----x-x----x-x----x----x-x-x-|
A|--------------------------------|-----------------------------|
E|--------------------------------|-----------------------------|

  (Am7)                           (Bm7)


e|-x--x-x---x-x-x-x--x-x---x-x-x-|----x----x-x-x-x---x-x---x-x-x-|
B|-x--x-x---x-x-x-x--x-x---x-x-x-|----x----x-x-x-x---x-x---x-x-x-|
G|-x--x-x---x-x-x-x--x-x---x-x-x-|----x----x-x-x-x---x-x---x-x-x-|
D|-x--x-x---x-x-x-x--x-x---x-x-x-|----x----x-x-x-x---x-x---x-x-x-|
A|-------------------------------|-------------------------------|
E|-------------------------------|-------------------------------|

Solo::

e|--------------------------------|-----------------------------|
B|-12-------------12------12------|-12-------------12------12---|
G|-14B16----------14B16---14B16---|-14B16----------14B16--------|
D|--------------------------------|-----------------------------|
A|--------------------------------|-----------------------------|
E|--------------------------------|-----------------------------|

e|----------------------------------|-----------------------------------------|
B|-14------14B15----14B15----14B16--|-12---------12~~-(12)~----12-------12----|
G|----------------------------------|-14B16--------------------14B16----------|
D|----------------------------------|-----------------------------------------|
A|----------------------------------|-----------------------------------------|
E|----------------------------------|-----------------------------------------|


e|-----------------------------------------|---------------------------------|
B|-8----------------------8--------7-------|-5----------(5)----5------5------|
G|-10B12~~~~~~~~-(12)~~---10B12----9B11----|-7B9--------(9)----7B9----7B9----|
D|-----------------------------------------|---------------------------------|
A|-----------------------------------------|---------------------------------|
E|-----------------------------------------|---------------------------------|


e|-----------------------------|---------------------------0--|
B|-3------------3----3----3----|-3-----3-----3-----3----------|
G|-5B7----------5B7--5B7--5B7--|-5B7---5B7---5B7---5B7--------|
D|-----------------------------|------------------------------|
A|-----------------------------|------------------------------|
E|-----------------------------|------------------------------|


e|---15p12-12---------12-12--------------------------------|
B|--------------------------15p12-------15----12--------12-|
G|-0------------14B16-------------15p14----14----14B16-----|
D|---------------------------------------------------------|
A|---------------------------------------------------------|
E|---------------------------------------------------------|

  (Am)               (Bm)


e|-------------------------------------------------------|
B|--------------------15------------------------15-------|
G|-14p12-14p12-14B16-----14B16r14p12-14--14B16-----14B16-|
D|-------------------------------------------------------|
A|-------------------------------------------------------|
E|-------------------------------------------------------|

  (Em)


e|-----------------------------------------------------------|
B|------15--------15-----------------------------------------|
G|-(16)----14B16-----14B16r14p12-14p12-14B16--15-------------|
D|-----------------------------------------------14B16r14p12-|
A|-----------------------------------------------------------|
E|-----------------------------------------------------------|

  (Am)                 (Bm)

e|-------------------------------------------------------|
B|-------------15-------------------------15-------------|
G|-14p12-14b16----14B16r14p12-14p12-14b16----14B16r14p12-|
D|-------------------------------------------------------|
A|-------------------------------------------------------|
E|-------------------------------------------------------|

  (Em)

e|------------------------------------------------------|
B|--------------15--------15--------15--------15--------|
G|-14p12-14B16-----14B16-----14B16-----14B16-----/16b18-|
D|------------------------------------------------------|
A|------------------------------------------------------|
E|------------------------------------------------------|
                                                    let ring

  (Am)                 (Bm)                 (Em)


e|-----------------------------12-15~~~~~~-|-15p12----12---------------15--17B19-----|
B|-------17--17-----17-17------------------|-------15----15B17---0-------------------|
G|-(18)------16B18-----16B18---------------|-----------------------0-----------------|
D|-----------------------------------------|-----------------------------------------|
A|-----------------------------------------|-----------------------------------------|
E|-----------------------------------------|-----------------------------------------|


  (Am)               (Bm)


e|-(19)-(b)19--17B19-------19B21----(21)\--|
B|-----------------------------------------|
G|-----------------------------------------|
D|-----------------------------------------|
A|-----------------------------------------|
E|-----------------------------------------|


Depsues hace asi:

   Am7                           Bm7                              Em7

e|----------8--------8---x-8-8-|----------10---------10---x-10--|-----x--9--7-------9---7----|
B|----------8--------8---x-8-8-|----------10---------10---x-10--|-----x--8--8-------8---8----|
G|----------5--------5---x-5-5-|----------7----------7----x-7---|-7h9----------9-----------9-|
D|----5h7-------5h7------------|----7h9---------7h9-------------|----------------------------|
A|-----------------------------|--------------------------------|----------------------------|
E|-----------------------------|--------------------------------|----------------------------|

                                   Am7)                (Bm7)


e|---------9p7---9p7---9p7---9p7--|-(7)\--------------------|-----------------------|
B|------8------8-----8-----8------|-(8)\---------------^12--|-(12)\-----------------|
G|-(9)----------------------------|--------------------^12--|-(14)\-----------------|
D|--------------------------------|--------------------^14--|-(14)\-----------------|
A|--------------------------------|-------------------------|-----------------------|
E|--------------------------------|-------------------------|-----------------------|


  (Em7)                                     (Am7)                 (Bm7)

e|-------------------|---------------------|---------------------|-----------------------|
B|-------------------|---------------------|---------------------|-----------------------|
G|----------------7--|--------7---------7--|----------------2b4r-|-r2p0--------------2bb-|
D|-------------------|---------------------|---------------------|-----------------------|
A|-------------------|---------------------|---------------------|-----------------------|
E|-------------------|---------------------|---------------------|-----------------------|

  (Em7)                                           (Am7)                 (Bm7)


e|--------------------|--------------------------|---------------------|----------------------|
B|-----3--------------|--------------------------|----------------15bb-|-17---------------12--|
G|-4------------------|-2p0----2--0--------------|---------------------|----------------------|
D|--------------------|-----2--------2--0--2~~~~-|---------------------|----------------------|
A|--------------------|--------------------------|---------------------|----------------------|
E|--------------------|--------------------------|---------------------|----------------------|
                                                                                          Harm.

  (Em7)                                         (Am7)                   (Bm7)


e|-----------------------|---------------------|-----------------------|------------------12--|
B|-(12)------------------|---------------------|-----------------------|------------12--------|
G|-------------------12--|-(12)----------------|-(12)------------------|----------------------|
D|-----------------------|---------------------|-----------12----------|----------------------|
A|-----------------------|---------------------|-----------------------|----------------------|
E|-----------------------|---------------------|-----------------------|----------------------|
                     Harm.                                 Harm.                    Harm. Harm.

  (Em7)                                                   (Am7)


e|-(12)----------------|-(12)--------15-------14---------|-14------------12------------|
B|---------------------|----------------12--------12-----|-------12-----------12-------|
G|---------------------|-------------------12--------12--|-----------12------------12--|
D|---------------------|---------------------------------|-----------------------------|
A|---------------------|---------------------------------|-----------------------------|
E|---------------------|---------------------------------|-----------------------------|
                                     let ring - - - - - - - - - - - - - - - - - - - - |

  (Bm7)                       (Em7)                                      (Am7)
e|---------------------------|-------------------|----------------------|------------------|
B|-15---12-------14--12------|-------------------|----------------------|------------------|
G|-----------12----------12--|-------------------|----------------------|------------------|
D|---------------------------|-14----------------|-(14)-----------------|------------------|
A|---------------------------|-------------------|----------------------|------------------|
E|---------------------------|-------------------|----------------------|------------------|


  (Bm7)              (Em7)

e|------------------|--------------------|------------------||
B|------------------|--------------------|------------------||
G|------------------|-----------------12-|------------------||
D|------------------|--------------------|------------------||
A|------------------|--------------------|------------------||
E|------------------|--------------------|------------------||


Espero q les sirva chau un saludo...aguanten los redondos!
Suggest correction
Give kudos to tab author, rate the tab!
1 2 3 4 5
comments
print report bad tab
guest
You may want to rate the tab now too:
select rating
Wanna post a correction for this tab? Suggest correction