Oops, an error
Loading. Please wait.

Corta El Pasto Bass

65 views 1 this week
no commentswrite comment
1 2 3 4 5
3 more votes to show rating
add to favorites
launch autoscroll
font size
0
reset
guitar tuner
×
Best way to learn
"Corta El Pasto"
Autoscroll
slow
fast
+/-
esc
set tempo
stop
Intro:

G:---------------------------
D:------3--6-5-------3--6-5-3
A:--5-5----------5-5---------


G:---------------------------
D:------3--6-5-----6---6-----
A:--5-5----------5---5-------

Cuando dice: ' amame ...' toda es parte es así

G:---------------------------
D:------3--6-5-------3--6-5-3
A:--5-5----------5-5---------

Cuando dice: 'Mas alla...' toda es parte es así

G:-------------------------------2-2-3-2-
D:----2-2-2-2--3-3-3-3--5-5-5-5----------
A:---------------------------------------

Estribillo:

G:-----------------2-2--
D:--2-2--3-3--5-5-------
A:----------------------
Suggest correction
Give kudos to tab author, rate the tab!
1 2 3 4 5
comments
print report bad tab
guest
You may want to rate the tab now too:
select rating
Wanna post a correction for this tab? Suggest correction