Oops, an error
Loading. Please wait.

Corta El Pasto Tab

77 views 1 this week
no commentswrite comment
1 2 3 4 5
3 more votes to show rating
add to favorites
launch autoscroll
font size
0
reset
how to read this tab
guitar tuner
Autoscroll
slow
fast
+/-
esc
set tempo
stop
Help us to improve Ultimate-Guitar.com Take our survey!
×
e------------------------------------------------------------
B------------------------------------------------------------
G----------6r5------------6r5------------6r5------------6r5--
D-7-7--10--------7-7--10--------7-7--10--------7-7--10-------
A-5-5---8--------5-5---8--------5-5---8--------5-5---8-------
E------------------------------------------------------------

e----------------------------------------------------------------------------
B----------------------------------------------------------------------------
G----------------------------------------------------------------------------
D-7-7--5--8-7---7-7--5--8-7---7-7--5--8-7----12r10-------12--12r10-------12--
A-5-5--3--6-5---5-5--3--6-5---5-5--3--6-5----------12-12-----------12-12-----
E----------------------------------------------------------------------------

e---------------------------------------------------------
B---------------------------------------------------------
G---------------------------------------------------------
D--7-7--5--8-7---7-7--5--8-7---7-7--5--8-7---7-7--5--8-7--
A--5-5--3--6-5---5-5--3--6-5---5-5--3--6-5---5-5--3--6-5--
E---------------------------------------------------------

 Amame, toda la noche...
e----------------------------------------------------
B----------------------------------------------------
G----------------------------------------------------
D---------6r5----------6r5----------6r5----------6r5-
A-5-5--8-------5-5--8-------5-5--8-------5-5--8------
E----------------------------------------------------

 Seremos jirafas...
e----------------------------------------------------
B----------------------------------------------------
G----------------------------------------------------
D---------6r5----------6r5----------6r5----------6r5-
A-5-5--8-------5-5--8-------5-5--8-------5-5--8------
E----------------------------------------------------

 Creere... Creere...
e---------------------------------------------------------
B---------------------------------------------------------
G---------------------------------------------------------
D--7-7--5--8-7---7-7--5--8-7---7-7--5--8-7---7-7--5--8-7--
A--5-5--3--6-5---5-5--3--6-5---5-5--3--6-5---5-5--3--6-5--
E---------------------------------------------------------

e------------------------------------
B------------------------------------
G------------------------------------
D-2-2-2-2--3-3-3-3--5-5-5-5--7--8/7--
A-2-2-2-2--3-3-3-3--5-5-5-5--7--8/7--
E-0-0-0-0--1-1-1-1--3-3-3-3--5--6/5--

 Mas alla de tu corazón
e------------------------------------------------------------------------
B------------------------------------------------------------------------
G------------------------------------------------------------------------
D-2-2-2-2--3-3-3-3--5-5-5-5--7--8/7---2-2-2-2--3-3-3-3--5-5-5-5--7--8/7--
A-2-2-2-2--3-3-3-3--5-5-5-5--7--8/7---2-2-2-2--3-3-3-3--5-5-5-5--7--8/7--
E-0-0-0-0--1-1-1-1--3-3-3-3--5--6/5---0-0-0-0--1-1-1-1--3-3-3-3--5--6/5--

 El espiritu reza
e------------------------------------------------------------------------
B------------------------------------------------------------------------
G------------------------------------------------------------------------
D-2-2-2-2--3-3-3-3--5-5-5-5--7--8/7---2-2-2-2--3-3-3-3--5-5-5-5--7--8/7--
A-2-2-2-2--3-3-3-3--5-5-5-5--7--8/7---2-2-2-2--3-3-3-3--5-5-5-5--7--8/7--
E-0-0-0-0--1-1-1-1--3-3-3-3--5--6/5---0-0-0-0--1-1-1-1--3-3-3-3--5--6/5--

e------------------------------------
B------------------------------------
G------------------------------------
D-2-2-2-2--3-3-3-3--5-5-5-5--7--8/7--
A-2-2-2-2--3-3-3-3--5-5-5-5--7--8/7--
E-0-0-0-0--1-1-1-1--3-3-3-3--5--6/5--

 Más allá, Más allá
e------------------------------------------------------------------------
B------------------------------------------------------------------------
G------------------------------------------------------------------------
D-2-2-2-2--3-3-3-3--5-5-5-5--7--8/7---2-2-2-2--3-3-3-3--5-5-5-5--7--8/7--
A-2-2-2-2--3-3-3-3--5-5-5-5--7--8/7---2-2-2-2--3-3-3-3--5-5-5-5--7--8/7--
E-0-0-0-0--1-1-1-1--3-3-3-3--5--6/5---0-0-0-0--1-1-1-1--3-3-3-3--5--6/5--

 Corto el paso, wah!!!!! Corto el pasto, wah, wah, wah!!!!!
e-----------------------------------------------------------------------
B-----------------------------------------------------------------------
G-----------------------------------------------------------------------
D-----------------------------------------------------------------------
A-----------------------------------------------------------------------
E-0-0-5-0-3-0-1-0---0-0-5-0-3-0-1-0--0-0-5-0-3-0-1-0---0-0-5-0-3-0-1-0--

 Corto el paso, wah!!!!! Corto el pasto, wah, wah, wah!!!!!
e---------------------------------------------------------------------
B---------------------------------------------------------------------
G---------------------------------------------------------------------
D---------------------------------------------------------------------
A-0-0-7-0-5-0-3-0--0-0-7-0-5-0-3-0--0-0-7-0-5-0-3-0--0-0-7-0-5-0-3-0--
E-0-0-5-0-3-0-1-0--0-0-5-0-3-0-1-0--0-0-5-0-3-0-1-0--0-0-5-0-3-0-1-0--

e------------------------------------------------------------------------
B------------------------------------------------------------------------
G------------------------------------------------------------------------
D-2-2-2-2--3-3-3-3--5-5-5-5--7--8/7---2-2-2-2--3-3-3-3--5-5-5-5--7--8/7--
A-2-2-2-2--3-3-3-3--5-5-5-5--7--8/7---2-2-2-2--3-3-3-3--5-5-5-5--7--8/7--
E-0-0-0-0--1-1-1-1--3-3-3-3--5--6/5---0-0-0-0--1-1-1-1--3-3-3-3--5--6/5--

e----------------------
B----------------------
G----------------------
D-2----------2---------
A-2----------2---------
E-0--[^8]----0--[^8]---

Más allá, Más allá
e------------------
B------------------
G------------------
D-2----------------
A-2----------------
E-0--[^16]---------

e--------------------
B--------------------
G--------------------
D-10-10-10-10-10--9--
A--8--8--8--8--8--7--
E--------------------

e----------------------------------------------------------------------------
B----------------------------------------------------------------------------
G----------------------------------------------------------------------------
D-7-7--5--8-7---7-7--5--8-7---7-7--5--8-7----12r10-------12--12r10-------12--
A-5-5--3--6-5---5-5--3--6-5---5-5--3--6-5----------12-12-----------12-12-----
E----------------------------------------------------------------------------

e---------------------------------------------------------
B---------------------------------------------------------
G---------------------------------------------------------
D--7-7--5--8-7---7-7--5--8-7---7-7--5--8-7---7-7--5--8-7--
A--5-5--3--6-5---5-5--3--6-5---5-5--3--6-5---5-5--3--6-5--
E---------------------------------------------------------

 Yo me iré de este planeta...
e----------------------------------------------------
B----------------------------------------------------
G----------------------------------------------------
D---------6r5----------6r5----------6r5----------6r5-
A-5-5--8-------5-5--8-------5-5--8-------5-5--8------
E----------------------------------------------------

 Seremos dueños...
e----------------------------------------------------
B----------------------------------------------------
G----------------------------------------------------
D---------6r5----------6r5----------6r5----------6r5-
A-5-5--8-------5-5--8-------5-5--8-------5-5--8------
E----------------------------------------------------

 Me iré... Me iré...
e---------------------------------------------------------
B---------------------------------------------------------
G---------------------------------------------------------
D--7-7--5--8-7---7-7--5--8-7---7-7--5--8-7---7-7--5--8-7--
A--5-5--3--6-5---5-5--3--6-5---5-5--3--6-5---5-5--3--6-5--
E---------------------------------------------------------

e------------------------------------
B------------------------------------
G------------------------------------
D-2-2-2-2--3-3-3-3--5-5-5-5--7--8/7--
A-2-2-2-2--3-3-3-3--5-5-5-5--7--8/7--
E-0-0-0-0--1-1-1-1--3-3-3-3--5--6/5--

 Mas alla de tu corazón
e------------------------------------------------------------------------
B------------------------------------------------------------------------
G------------------------------------------------------------------------
D-2-2-2-2--3-3-3-3--5-5-5-5--7--8/7---2-2-2-2--3-3-3-3--5-5-5-5--7--8/7--
A-2-2-2-2--3-3-3-3--5-5-5-5--7--8/7---2-2-2-2--3-3-3-3--5-5-5-5--7--8/7--
E-0-0-0-0--1-1-1-1--3-3-3-3--5--6/5---0-0-0-0--1-1-1-1--3-3-3-3--5--6/5--

 El espiritu es más duro
e------------------------------------------------------------------------
B------------------------------------------------------------------------
G------------------------------------------------------------------------
D-2-2-2-2--3-3-3-3--5-5-5-5--7--8/7---2-2-2-2--3-3-3-3--5-5-5-5--7--8/7--
A-2-2-2-2--3-3-3-3--5-5-5-5--7--8/7---2-2-2-2--3-3-3-3--5-5-5-5--7--8/7--
E-0-0-0-0--1-1-1-1--3-3-3-3--5--6/5---0-0-0-0--1-1-1-1--3-3-3-3--5--6/5--

e------------------------------------
B------------------------------------
G------------------------------------
D-2-2-2-2--3-3-3-3--5-5-5-5--7--8/7--
A-2-2-2-2--3-3-3-3--5-5-5-5--7--8/7--
E-0-0-0-0--1-1-1-1--3-3-3-3--5--6/5--

 Más allá, Más allá
e------------------------------------------------------------------------
B------------------------------------------------------------------------
G------------------------------------------------------------------------
D-2-2-2-2--3-3-3-3--5-5-5-5--7--8/7---2-2-2-2--3-3-3-3--5-5-5-5--7--8/7--
A-2-2-2-2--3-3-3-3--5-5-5-5--7--8/7---2-2-2-2--3-3-3-3--5-5-5-5--7--8/7--
E-0-0-0-0--1-1-1-1--3-3-3-3--5--6/5---0-0-0-0--1-1-1-1--3-3-3-3--5--6/5--

 Corto el paso, wah!!!!! Corto el pasto, wah, wah, wah!!!!!
e-----------------------------------------------------------------------
B-----------------------------------------------------------------------
G-----------------------------------------------------------------------
D-----------------------------------------------------------------------
A-----------------------------------------------------------------------
E-0-0-5-0-3-0-1-0---0-0-5-0-3-0-1-0--0-0-5-0-3-0-1-0---0-0-5-0-3-0-1-0--

 Corto el paso, wah!!!!! Corto el pasto, wah, wah, wah!!!!!
e---------------------------------------------------------------------
B---------------------------------------------------------------------
G---------------------------------------------------------------------
D---------------------------------------------------------------------
A-0-0-7-0-5-0-3-0--0-0-7-0-5-0-3-0--0-0-7-0-5-0-3-0--0-0-7-0-5-0-3-0--
E-0-0-5-0-3-0-1-0--0-0-5-0-3-0-1-0--0-0-5-0-3-0-1-0--0-0-5-0-3-0-1-0--

e---------------------
B---------------------
G---------------------
D---------------------
A-3-3-3-3-3-3-3-3--2--
E-1-1-1-1-1-1-1-1--0--

Estas son las tabs, a continuación la letra completa de la canción:


Amame, toda la noche,
amame, todo el tiempo
seremos jirafas, antes que sapos
seremos babosas, antes que murcielagos
creeré, creeré...

Mas allá de tu corazón
el espititu reza
mas allá, más alla...

Corto el paso, wah!!!!!
corto el pasto, wah, wah, wah!!!!!
Corto el paso, wah!!!!!
corto el pasto, wah, wah, wah!!!!!

Yo me iré, de este planeta,
yo me iré, lejos de casa,
seremos dueños de nuestros destinos
seremos libres, y no prisioneros
me iré, me iré

Mas allá de tu corazón
el espititu, es mas duro
mas allá, más alla...

Corto el paso, wah!!!!!
corto el pasto, wah, wah, wah!!!!!
Corto el paso, wah!!!!!
corto el pasto, wah, wah, wah!!!!!

Por ultimo, las anotaciones de las tablaturas:

 |-------|-------|2------|
 |--5/9--|--6r5--|2------|
 |-------|-------|0--[^8]|
    (1)     (2)     (3)   

(1)= Slide: Tocar la nota y arrastrar el dedo hasta llegar a la 
            siguiente (En el ejemplo: Hacer sonar la cuerda en 
            el 5º Casillero y arrastrarse hasta el 9º)
            NOTA: Si en el slide aparece como primera nota la cuerda
                  al aire, hacer sonar la nota, y hacer un Hold en el 
                  primer casillero arrastrando haste el casillero 
                  indicado. Ejemplo= 0/5 sería algo como 0h1s5

(2)= Release: Soltar la nota haciendo que en la vibración haga sonar 
              la nota anterior. (En el ejemplo: Tocar en el 
              6º casillero y soltar haciendo que suene la nota del 
              5º casillero)
(3)= Este es un invento mío, significa que hay que soltar la nota y 
     contar hasta el número indicado sin tocar ninguna nota. 
     (En el Ejemplo: Tocar un E5 y no tocar una notar hasta 
     haber contado hasta ocho. Se recomienda escuchar la  
     grabación original para calcular mejor el espacio).
Suggest correction
Give kudos to tab author, rate the tab!
1 2 3 4 5
comments
print report bad tab
guest
You may want to rate the tab now too:
select rating
Wanna post a correction for this tab? Suggest correction