Oops, an error
Loading. Please wait.

Corto El Pasto Bass

41 views 3 this week
no commentswrite comment
1 2 3 4 5
3 more votes to show rating
add to favorites
launch autoscroll
font size
0
reset
guitar tuner
×
Best way to learn
"Corto El Pasto"
Autoscroll
slow
fast
+/-
esc
set tempo
stop
Bueno...na ke decir...aki les va:
Intro:
G--------------     -----------    -----------
D--------6-5---     ---6----6--    -------6-5-
A--5-5-8------- x7  -5----5---- x1 -5-5-8----- x4
E--------------     -----------    -----------

Aqui comienza la letra:(Amame toda la noche...):
G---------------
D---------6-5---
A--5-5-8-------- x12
E---------------

Mas allá...:
G---------------------------------
D-----------------5-5-5-5-7-7-8-7-
A-7-7-7-7-8-8-8-8----------------- x8
E---------------------------------

Corta el pasto wah!!...corta el pasto wah wah wah..
bueno...esta es la unik parte de la cancion ke los
puede complikar...es bastante rapido...:
G------------------
D-----7---5--------
A-7-7---7---7-8-7-- x8
E------------------

Sonidos raros por XmF..(algo asi como
e-e-o-o-a-i-a-a-i-a e-e-o-o-a-i-a-a-i-a):
G---------------------------------
D-----------------5-5-5-5-7-7-8-7-
A-7-7-7-7-8-8-8-8----------------- x4
E---------------------------------

Intermedio...no dicen na asi ke no tiene na caracteristico
G--------------     -----------    -----------
D--------6-5---     ---6----6--    -------6-5-
A--5-5-8------- x3  -5----5---- x1 -5-5-8----- x4
E--------------     -----------    -----------

Aki vuelven a cantar(Yo me iré..):
G---------------
D---------6-5---
A--5-5-8-------- x12
E---------------

Mas allá...:
G---------------------------------
D-----------------5-5-5-5-7-7-8-7-
A-7-7-7-7-8-8-8-8----------------- x8
E---------------------------------

Corta el pasto wah!!
G------------------
D-----7---5---8----
A-7-7---7---7---7-- x8
E------------------

Buena esta cancion estaba asi como por partes....y
aki intente reunir todos esos trozos de corta el
pasto ke habian por todos lados....Ojala les sirva
Y Aguante el Otro Yo...Un saludo a todos los
otroyoianos desde Shile...Cualker custion a
otroyoiano_ppg@ Arroz
Suggest correction
Give kudos to tab author, rate the tab!
1 2 3 4 5
comments
print report bad tab
guest
You may want to rate the tab now too:
select rating
Wanna post a correction for this tab? Suggest correction