Oops, an error
Loading. Please wait.

Corto El Pasto Tab

version 1
version 1

Whole song

15 views 1 this week
no commentswrite comment
1 2 3 4 5
3 more votes to show rating
add to favorites
launch autoscroll
font size
0
reset
how to read this tab
guitar tuner
Autoscroll
slow
fast
+/-
esc
set tempo
stop
Help us to improve Ultimate-Guitar.com Take our survey!
×
RIFF 1
e-------------------------
B-------------------------
G-7--7--7/10--13--12--10--
D-7--7--7/10--13--12--10--
A-5--5--5/-8--11--10---8--
E-------------------------

RIFF 2
e----------------------------------------------
B----------------------------------------------
G----------------------------------------------
D-2--2--2--2--3--3--3--3--5--5--5--5--7--8--7--
A-2--2--2--2--3--3--3--3--5--5--5--5--7--8--7--
E-0--0--0--0--1--1--1--1--3--3--3--3--5--6--5--

RIFF 3
e----------------
B----------------
G----------------
D----------------
A----------------
E-0-0-5-0-3-0-2-0

INTRO= RIFF 1 (X8)

(Sobre RIFF 1)
Amame, toda la noche,
amame, todo el tiempo
seremos jirafas, antes que sapos
seremos babosas, antes que murcielagos
creeré, creeré...

(Sobre RIFF 2)
Mas allá de tu corazón
el espititu, es mas duro
mas allá, más alla...

(Sobre RIFF 3)
Corto el paso, wah!!!!!
corto el pasto, wah, wah, wah!!!!!
Corto el paso, wah!!!!!
corto el pasto, wah, wah, wah!!!!!

RIFF 1 (X8)

(Sobre RIFF 1)
Yo me iré, de este planeta,
yo me iré, lejos de casa,
seremos dueños de nuestros destinos
seremos libres, y no prisioneros
me iré, me iré

(Sobre RIFF 2)
Mas allá de tu corazón
el espititu, es mas duro
mas allá, más alla...

(Sobre RIFF 3)
Corto el paso, wah!!!!!
corto el pasto, wah, wah, wah!!!!!
Corto el paso, wah!!!!!
corto el pasto, wah, wah, wah!!!!!


Eso es todo, para comentarios, pedidos, puteadas, etc. 
mandenmen un mail a neotokio3@

AGUANTE EL OTRO YO!!!!
LA CUMBIA ES UNA MIERDA!!!!
Suggest correction
Give kudos to tab author, rate the tab!
1 2 3 4 5
comments
print report bad tab
guest
You may want to rate the tab now too:
select rating
Wanna post a correction for this tab? Suggest correction