Oops, an error
Loading. Please wait.

Crazy Tab

22 views 1 this week
no commentswrite comment
1 2 3 4 5
3 more votes to show rating
add to favorites
launch autoscroll
font size
0
reset
how to read this tab
guitar tuner
Autoscroll
slow
fast
+/-
esc
set tempo
stop
Help us to improve Ultimate-Guitar.com Take our survey!
×
*INTRO/VERSOS:

e|----------0--------3-------------------------
B|----------0--------3----------3--3--3--3---3-
G|-----1-1--1----1-1-0----------2b-2b-2b-2b-p0-
D|-----2-2--x----2-2-0-------------------------
A|-----2-2--x----2-2-x-------------------------
E|-----0-0--x----0-0-x-------------------------
                          "...ACÁ ESTA TODO MAL, MEN!"

[repite el mismo tab durante todos estos versos:]

Tu corazón de alcancía girl, crazy man.
Mi mente es de metal, hey, crazy men.
Esto es una anarquía."


*PUENTE:
"Entre el hielo de tu corazón,
Ya no queda nada entre los dos, ni una gota de pasión."

e|----------------------------------
B|----------------------------------
G|-----------------3-4-4-4---5------
D|---------3-4-4-4-------------5----
A|-3-3-3-3-----------------------3--
E|----------------------------------

e|-------------------------
B|-------------------------
G|-------------------------
D|---------3-3-3-3-2-2-2-2-
A|-3-3-3-3-----------------
E|-------------------------


*ESTRIBILLO:
"Dame...tu boca pendeja, dame tu lengua de nena."

Riff con efecto de pedal Wah-Wah! Cry:
e|----------------------
B|----------------------
G|----------------------
D|----------------------
A|-2-2-2-2-2-----0h2----
E|-----------0h2--------

Variación:
e|-----------------------
B|-----------------------
G|-----------------------
D|-----------------------
A|-----0h2-----0h2-------
E|-0h2-----0h2-----------

*VERSOS:
[Usa el mismo tab de los versos al principio]
"Crazy men,
como chatarra asesina hey!
Rueda tu rueda culera wey!
Crazy men, te van a latigar hey! Crazy."

*PUENTE:
[mismo tab]
"Entre el hielo de tu corazón,
Ya no queda nada entre los dos,
ni una gota de pasión."

*ESTRIBILLO:
[igual acá]
"Dame tu boca pendeja,
dame tu lengua de nena. "

*SOLO:
e|----------------------
B|-3h5--2h3-2-3-2-3-2-3-
G|----------------------
D|----------------------
A|----------------------
E|----------------------

x--------------x-----------------------
x-2-2b3-2-2b3--x-5-5-5/8-8-8---(15)/(5)
---------------------------------------
---------------------------------------
---------------------------------------
---------------------------------------

e|--------------------------5-5/3-
B|---------5-5-5-5-/-8-8-8--5-5/3-
G|--------------------------------
D|--------------------------------
A|--------------------------------
E|--------------------------------

[repite esto última 4 veces mas y hace:]

e|------------------
B|--5-5-5-5/888/7---
G|------------------
D|------------------
A|------------------
E|------------------

*VERSOS DE NUEVO:
"Acá está todo mal! men, Crazy men, estás lleno de odio men."

*PUENTE:
"Crazy men, nuestras miradas matan."

*ESTRIBILLO:
"Dame tu boca pendeja, dame tu lengua de nena..."


_______________________________
Transcripto por: Sebastián Ara.
MSN: 
Buenos Aires, Argentina, 2008
Suggest correction
Give kudos to tab author, rate the tab!
1 2 3 4 5
comments
print report bad tab
guest
You may want to rate the tab now too:
select rating
Wanna post a correction for this tab? Suggest correction