Oops, an error
Loading. Please wait.

Dinero 666 Tab

16 views 1 this week
no commentswrite comment
1 2 3 4 5
3 more votes to show rating
add to favorites
launch autoscroll
font size
0
reset
how to read this tab
guitar tuner
×
Best way to learn
"Dinero 666"
Autoscroll
slow
fast
+/-
esc
set tempo
stop
Intro:

        e:---------------------------------  |
        B:---------------------------------  |
        G:--(9)------(12)----(11)--(10)-(9)  |
        D:---------------------------------  |--] x4
        A:---------------------------------  |
        E:---------------------------------  |
                                             |

       (#) = Tremolo picking


Estribillo:


        e:------------------------------------------  |
        B:------------------------------------------  |        Sí, lo sé
        G:------------------------------------------  |
        D:--2-------5--2------3-2-2----2---5---2----  |--] x2  dinero 666
        A:--2-------5--2------3-2-2----2---5---2----  |
        E:--0-------3--0----------------------------  |
                                                      |


Verso 1:


        B
        Una piedra negra,

        A
        perdida en el suelo,

        G#m
        cantando memorias,

        G
        con orquestas y violines.


Puente :

        e:----------------------------------- | -------------------
        B:----------------------------------- | -------------------  |
        G:--(9)------(12)----(11)--(10)-(9)-- | --(9) / (21*)  ----  |
        D:----------------------------------- | -------------------  |--] x2
        A:----------------------------------- | -------------------  |
        E:----------------------------------- | -------------------  |
                                                                    /


        (#)= Tremolo Picking

        * = Con Delay


Estribillo:


        e:------------------------------------------  |
        B:------------------------------------------  |       Sí, lo sé
        G:------------------------------------------  |                  x2
        D:--2-------5--2------3-2-2----2---5---2----  |--]x2  dinero 666
        A:--2-------5--2------3-2-2----2---5---2----  |
        E:--0-------3--0----------------------------  |


Verso 2:


        B
        Una piedra negra,

        A
        sangrando en el suelo,

        G#m
        cantando memorias,

        G
        de un planeta exterminado.


        Pirámides!

______________________________________________________________________
                                                                      
e:----------------------------|    |--------------------------------  |
B:----------------------------|    |--------------------------------  |
G:- 9      --- 12 -- 11 -- 10-| x3 |-- 9     - 14 ---- 13 -- 12 ----  |--]x4
D:- X   x5 ---  X -- X  -- X -|    |-- X  x5 - X  ---- X  -- X  ----  |
A:- 7      --- 10 -- 9  -- 8 -|    |-- 7     - 12 ---- 11 -- 10 ----  |
E:----------------------------|    |--------------------------------  |
                                                                      |
______________________________________________________________________/

        Guerras! Hambre!
        Egoísmo!
        Codicía, desidia
        Infernal!
        Terrorismo alimenticio
        Cuánta malicia
        Cuánta malicia


Estribillo:


        Guitarra 1:

            e:------------------------------------------  |
            B:------------------------------------------  |        Sí, lo sé
            G:------------------------------------------  |                  x2
            D:--2-------5--2------3-2-2----2---5---2----  |-] x2  dinero 666
            A:--2-------5--2------3-2-2----2---5---2----  |
            E:--0-------3--0----------------------------  |


        Guitarra 2* :

            e:------------------------------ |
            B:------------------------------ |
            G:------------------------------ |
            D:------------------------------ |--] x4
            A:--2---2--2-2--2--2-2--2--2-2-- |
            E:--0---0--0-0--0--0-0--0--0-0-- |


                * = Palm muting


Outro:

______________________________________________________________________
                                                                      
e:----------------------------|    |--------------------------------  |
B:----------------------------|    |--------------------------------  |
G:- 9      --- 12 -- 11 -- 10-| x3 |-- 9     -- 14 ---- 13 -- 12 ---  |-]x2
D:- X   x5 ---  X -- X  -- X -|    |-- X  x5 -- X  ---- X  -- X  ---  |
A:- 7      --- 10 -- 9  -- 8 -|    |-- 7     -- 12 ---- 11 -- 10 ---  |
E:----------------------------|    |--------------------------------  |
                                                                      |
______________________________________________________________________/

        Guerras! Hambre!
        Egoísmo!
        Codicía, desidia
        Infernal!
        Terrorismo alimenticio,
        tragate tu violencia
        y explotá.


       Acordes (en 5tas):

        +---------+----------+
        | Tono    |  EADGBe  |
        +---------+----------+
        | B       | [x244xx] |

        | A       | [577xxx] |

        | G#m     | [466xxx] |

        | G       | [355xxx] |
        +---------+----------+
Suggest correction
Give kudos to tab author, rate the tab!
1 2 3 4 5
comments
print report bad tab
guest
You may want to rate the tab now too:
select rating
Wanna post a correction for this tab? Suggest correction