Oops, an error
Loading. Please wait.

Duraznos Tab

23 views 1 this week
no commentswrite comment
1 2 3 4 5
3 more votes to show rating
add to favorites
launch autoscroll
font size
0
reset
how to read this tab
guitar tuner
Autoscroll
slow
fast
+/-
esc
set tempo
stop
Help us to improve Ultimate-Guitar.com Take our survey!
×
introducción x 6:

e||----------------------------------------------------|
B||----------------------------------------------------|
G||--------------------0------------0------------------|
D||--------0--------2-----2------2-----2------0-----0--|
A||-----2-----0--3-----------0-----------0-3-----2-----|
E||--3-------------------------------------------------|


Estrofa 1: con bajo de fondo (a) o guitarra (b):
                       
Hoy es un día especial   (a)|G||--0--0/5--5/2--2/5--4--|
mi comida preferida         |D||-----------------------|
hoy es un día especial      |A||-----------------------|
hay duraznos en almibar     |E||-----------------------|

                         (b)|e||-----------------------|
                            |B||-----------------------|
                            |G||-----------------------|
                            |D||-----------------------|
                            |A||-----------------------|
                            |E||--3--3/8--8/5--5/8--7--|


Estrofa 2: haciendo arpegio con los acordes (tocar las cuerdas por separado)

    G        G              G                G       C   G             
     Tus ojos son estrellas, brillan mejor en invier-no, Ahhhhhhhhhhhhhhhhhh


Estrofa 1: con bajo de fondo:
                          
Hoy es un día especial    
hay flores en tu puerta nena
hoy es un día especial
hay alegría en tu cara nena


Estrofa 2:

    G        G              G                G       C   G             
     Tus ojos son estrellas, brillan mejor en invier-no, Ahhhhhhhhhhhhhhhhhh


Estribillo x2:

e||---------------------------|
B||---------------------------|
G||---------------------------|
D||-5--5--10-10---7--7--10-9--|
A||-5--5--10-10---7--7--10-9--|
E||-3--3---8--8---5--5---8-7--|
    No te alcanza con mi pene,
    quieres a otros hombre también, también.


Estrofa 3: con el estribillo de fondo:

Hoy es un día especial,
Estás sola en tu cama nena.
Ella esta borraca en el baño,
Ella quiere morirse.
ahhhhhhhhhhhhhhhhhhhhhhhhhhh (en esta parte arpegio en G)


Interludio x3:

e||-----------------------------|
B||-----------------------------|
G||--------------------0--------|
D||--------0--------2-----2-----|
A||-----2-----0--3--------------|
E||--3--------------------------|


Final: Introducción x6 y el la cuarta empieza a cantar:

Tus ojos son estrellas,
brillan mejor en invieeernoooo

e||--------------|
B||--3-->>>>>>>>>|
G||--0-->dejar>>>|
D||--0-->>>>>>>>>|
A||--2-->sonando>|
E||--3-->>>>>>>>>|
Suggest correction
Give kudos to tab author, rate the tab!
1 2 3 4 5
comments
print report bad tab
guest
You may want to rate the tab now too:
select rating
Wanna post a correction for this tab? Suggest correction