Oops, an error
Loading. Please wait.

E-O-Y Tab

13 views 1 this week
no commentswrite comment
1 2 3 4 5
3 more votes to show rating
add to favorites
launch autoscroll
font size
0
reset
how to read this tab
guitar tuner
Autoscroll
slow
fast
+/-
esc
set tempo
stop
Help us to improve Ultimate-Guitar.com Take our survey!
×
RIFF 1
e-----------
B-----------
G-----------
D-----------
A-2-2--2--2-
E-0-0--3--0-

RIFF 2
e------------------------------------------------
B------------------------------------------------
G------------------------------------------------
D------------------------------------------------
A-12--12--12/11/9--9--9/11/12--12--12--12/11/9-9-
E-10--10--10/-9/7--7--7/-9/10--10--10--10/-9/7-7-

RIFF 3
e----------------------
B-----------------------
G-----------------------
D-----------------------
A-2--2--0--0--0--0--0/0-
E-0--0--3--3--6--6--5/3-

RIFF 4
e-------------------------------------------
B-------------------------------------------
G-------------------------------------------
D-10--10-10-10-10--10/9--7--5--14--14-14-14-
A-10--10-10-10-10--10/9--7--5--14--14-14-14-
E--8---8--8--8--8---8/7--5--3--12--12-12-12-
                               \     *     /

RIFF 5
e------------------------------------------
B-12--12-12-12--10------10-------------12--
G-------------------12------12--10--9------
D------------------------------------------
A------------------------------------------
E------------------------------------------

INTRO= RIFF 1 (X8) - RIFF 2 (X2)

(Sobre RIFF 1)
BEBE MI LOCURA
BEBE DE MI SEXO AHORA
CONSUME MI VIOLENCIA
VAMOS, VAMOS, VAMOS, VAMOS, VAMOS

(Sobre RIFF 3)
YO SOY EL OTRO YO!
YO SOY EL OTRO YO!
YO SOY EL OTRO YO!
YO SOY EL OTRO YO!

(Sobre RIFF 4)
NUNCA SERE EXORCISADO. NO! AH!
NUNCA SERE EXORCISADO. 

RIFF 1 (X8) - RIFF 2 (X2)

(Sobre RIFF 1)
TRAGATE MIS DEDOS
TRAGATE MI LENGUA AHORA
CONSUME MI SANGRE INFECTADA
BEBE DE MI, BEBE DE MI, BEBE DE MI

(Sobre RIFF 3)
YO SOY EL OTRO YO!
YO SOY EL OTRO YO!
YO SOY EL OTRO YO!
YO SOY EL OTRO YO!

(Sobre RIFF 4)
NUNCA SERE EXORCISADO. NO! AH!
NUNCA SERE EXORCISADO. 

RIFF 5 (X4)
RIFF 1 (X4)


Eso es todo, para comentarios, pedidos, puteadas, etc. 
mandenmen un mail a neotokio3@

AGUANTE EL OTRO YO!!!!
LA CUMBIA ES UNA MIERDA!!!!
Suggest correction
Give kudos to tab author, rate the tab!
1 2 3 4 5
comments
print report bad tab
guest
You may want to rate the tab now too:
select rating
Wanna post a correction for this tab? Suggest correction