Oops, an error
Loading. Please wait.

El Conquistador Chords

29 views 1 this week
no commentswrite comment
1 2 3 4 5
3 more votes to show rating
add to favorites
launch autoscroll
font size
0
reset
transpose
0
reset
simplify chords
display chords
guitar tuner
×
Best way to learn
"El Conquistador"
Autoscroll
slow
fast
+/-
esc
set tempo
stop
Transcripción: Marcelo Villar (Rio cuarto, Córdoba)

ACORDES: A5 002200
         Em 022000
         G  320003
         Am 002210

INTRO:     A5 Em A5 Em   
             
    A5  Em    G     Em         A5  Em      A5   Em
6|-------------------------------------------------
5|-------------------------------------------------
4|-------------------------------------------------
3|-------------------------------------------------
2|--5-5-----5-3-5-5------------5-5-----5-3-5-3-0-3-
1|------3-3---------3-3------------3-3-------------

    A5  Em    G     Em         A5  Em      A5   Em
6|-------------------------------------------------
5|-------------------------------------------------
4|-------------------------------------------------
3|-------------------------------------------------
2|--5-5-----5-3/5-5------------5-5-----5-3-5-3-0-3-
1|------3-3---------3-3------------3-3-------------

(/=slide)


A5        Em         A5       Em
Sangra la tierra del conquistador
A5      Em      A5        Em
Fuma la yerba que el rey curó
A5      Em      G        Em
Tu valentia un día despues
A5             Em    A5        Em
La cuenta y disfruta el del cartel


    A5  Em   A5    Em          A5  Em   G       Em
6|-------------------------------------------------
5|-------------------------------------------------
4|-------------------------------------------------
3|-------------------------------------------------
2|--5-5-----5-3/5-5------------5-5-----5-3-5-3-0-3-
1|------3-3---------3-3------------3-3-------------


A5        Em         A5       Em
Sangra la tierra del conquistador
A5            Em          A5        Em
Blanco es el imperio que siempre soñó
A5          Em          G        Em
Se hiera tu cuerpo un día despues
A5          Em         A5       Em
Alejarte un poco quisas te haga bien

A5      Em      G        Em

Am        Em        Am       Em
Ahora que canto y extraño tu voz
Am         Em        G       Em
Terminó el juego perdimos los dos
Am          Em          Am      Em
Ahora que alcanso a ver mucho mejor 
Am          Em        G        Em
Se apaga el fuego del conquistador

      A5    Em      A5     Em    A5    Em     G     Em
6|-----------------------------------------------------
5|------------2----------------------------------------
4|--4/5-5-4-2---2----5-5-4-2-----5-4-5-7-5-4-5-7-5-2---
3|-----------------------------------------------------
2|-----------------------------------------------------
1|-----------------------------------------------------


      A5    Em      A5     Em    A5    Em     G     Em
6|-----------------------------------------------------
5|------------2----------------------------------------
4|--4/5-5-4-2---2--/--5-5-4-2--/--5-4-5/7-5-4-5-7-5-2--
3|-----------------------------------------------------
2|-----------------------------------------------------
1|-----------------------------------------------------


      Am    Em      Am     Em    Am    Em     G     Em
6|-----------------------------------------------------
5|-----------------------------------------------------
4|-----------------------------------------------------
3|---------------------------4-------------------------
2|--5-5-7/8-7-5--------5-5-7---5-5-7/8-7-8-10-8-7-5----
1|-----------------------------------------------------


Cualquier duda, consulta o sugerencia: marcelovillar@
Suggest correction
Give kudos to tab author, rate the tab!
1 2 3 4 5
comments
print report bad tab
guest
You may want to rate the tab now too:
select rating
Wanna post a correction for this tab? Suggest correction