Oops, an error
Loading. Please wait.

El Criollo Bass

10 views 1 this week
no commentswrite comment
1 2 3 4 5
3 more votes to show rating
add to favorites
launch autoscroll
font size
0
reset
guitar tuner
×
Best way to learn
"El Criollo"
Autoscroll
slow
fast
+/-
esc
set tempo
stop
El criollo camina por el matorral,
su caballo lo sigue hacia donde el va

        (punteo 1)
 G|--------------------------------------
 D|--------------------------------------
 A|-9-9-11-8--9-9-8-10---9-9-11-8--9-9---
 E|9-9-------9-9--------9-9-------9-9-7-9

Mi mate está dulce,
yo tomo mate amargo
Ay mi chinita el agua está fría
quiero una bombilla
quiero una bombilla
y un estuche para mi charango!

          (punteo 2)
  G|-----------------------------------------------
  D|7-7-7-7-7-7-9-9-9-9-9-9-7-7-7-7-7-7-9-9-9-9-9-9
  A|-----------------------------------------------
  E|-----------------------------------------------

El criollo camina por el matorral,
su caballo lo sigue hacia donde el va
hacia donde el va
hacia donde el va

 (vuelve al punteo 1)
Quiero una herradura para mi caballo blanco,
blanco
Quiero una montura para mi caballo blanco,
blanco

  G|----------------
  D|-5-5------------
  A|-------------9--
  E|-----7-7-7-7--9-

Ohhh ... ohh caballito
arre...
Ohhh ... ohh caballito
arre ...

Arre!!!! Arre!!!! Arre!!!!
Arre caballo !!!
Arre!!!! Arre!!!! Arre!!!!

    (vuelve al punteo 2)
El criollo camina por el matorral,
su caballo lo sigue hacia donde el va
hacia donde el va
hacia donde el va
Suggest correction
Give kudos to tab author, rate the tab!
1 2 3 4 5
comments
print report bad tab
guest
You may want to rate the tab now too:
select rating
Wanna post a correction for this tab? Suggest correction