Oops, an error
Loading. Please wait.

El Criollo Chords

14 views 1 this week
no commentswrite comment
1 2 3 4 5
3 more votes to show rating
add to favorites
launch autoscroll
font size
0
reset
transpose
0
reset
simplify chords
display chords
guitar tuner
Autoscroll
slow
fast
+/-
esc
set tempo
stop
Help us to improve Ultimate-Guitar.com Take our survey!
×
Introduccion: A, D (con guitarra criolla/clásicia)

el criollo
camina por el matorral
su caballo lo sigue
hacia donde el va


Estrofa: (con guitarra eléctrica y distrosión)

1||-------------------------------------------------------------------------------------|
2||-------------------------------------------------------------------------------------|
3||-------------------------------------------------------------------------------------|
4||-------------------------------------------------------------------------------------|
5||--0--5--0--5--7-7-7-4--0--5--0--5--4-4-4-6--0--5--0--5--7-7-7-4--0--5--0--5----------|
6||-----------------------------------------------------------------------------3-3--5--|
mi mate esta dulce, yo tomo mate amargo, ay mi chinita, el agua esta fria, quiero una bombilla, 
quiero una bombilla, y un estuche, para mi charango.


Estribillo:

1ra parte: A5, D5 (rápido)

2da parte:A5    D5       A5         D5       A5             D5     A5            D5
          El criollo, camina por el matorral, su caballo lo sigue, hacia donde él va
         A5             D5     A5             D5     A5              D5    A5             D5
          hacia donde el vaaaa, hacia donde el vaaaa, hacia donde el vaaaa, hacia donde el vaaaaa


Estrofa:

quiero una herradura para mi caballo blanco blanco
quiero una montura para mi caballo blanco blanco


Puente:

1||---------------------|
2||---------------------|
3||---------------------|
4||--4-4----------------|
5||------------5---5----|
6||------5-5-5---5---5--|
Oh caballito arre
Oh caballito arré!
   arre!
   arre!
   arre!
   arre!


Estribillo:

1ra parte: A5, D5 (rápido)

2da parte:A5    D5       A5         D5       A5             D5     A5            D5
          El criollo, camina por el matorral, su caballo lo sigue, hacia donde él va
         A5             D5     A5             D5     A5              D5    A5             D5
          hacia donde el vaaaa, hacia donde el vaaaa, hacia donde el vaaaa, hacia donde el vaaaaa

Fin: A5
Suggest correction
Give kudos to tab author, rate the tab!
1 2 3 4 5
comments
print report bad tab
guest
You may want to rate the tab now too:
select rating
Wanna post a correction for this tab? Suggest correction