Oops, an error
Loading. Please wait.

El Zumbido Chords

version 3
version 3

Whole song

38 views 3 this week
no commentswrite comment
1 2 3 4 5
3 more votes to show rating
add to favorites
launch autoscroll
font size
0
reset
transpose
0
reset
display chords
guitar tuner
×
Best way to learn
"El Zumbido"
Autoscroll
slow
fast
+/-
esc
set tempo
stop

riff:
e|--------------------|
A|--------------------|
D|--------------------|
G|--7-7-7777-77-7777--| 
B|--7-7-7777-77-7777--|
E|--5-5-5656-55-5656--|

e|-------------------------|
A|-------------------------|
D|------------------8-8-8b-|
G|--7-7-7777-77-7777-------| 
B|--7-7-7777-77-7777-------|
E|--5-5-5656-55-5656-------|

'deja que penetre...'
e|-----------------|
A|-----------------|
D|-----555-----555-|
G|-777-555-444-555-|
B|-777-333-444-333-| 4x
E|-555-----222-----|
pm*****   *****

'ese zumbido...'
e|-----------------|
A|-----------------|
D|-----555-----555-|
G|-777-555-444-555-|
B|-777-333-444-333-| 4x
E|-555-----222-----|

'ua ua...'
e|-----------------|
A|-----------------|
D|-----555-----555-|
G|-777-555-444-555-|
B|-777-333-444-333-| 4x
E|-555-----222-----|

e|--------------------|
A|--------------------|
D|--------------------|
G|--7-7-7777-77-7777--| 4x
B|--7-7-7777-77-7777--|
E|--5-5-5656-55-5656--|

e|-------------------------|
A|-------------------------|
D|------------------8-8-8b-|
G|--7-7-7777-77-7777-------| 
B|--7-7-7777-77-7777-------|
E|--5-5-5656-55-5656-------|

e|-----------------|
A|-----------------|
D|-----555-----555-|
G|-777-555-444-555-|
B|-777-333-444-333-| 4x
E|-555-----222-----|
pm*****   *****
despues de esto hace una distorcion
(como un zumbido).

'ese zumbido...'
e|-----------------|
A|-----------------|
D|-----555-----555-|
G|-777-555-444-555-|
B|-777-333-444-333-| 4x
E|-555-----222-----|

'ua ua...'
e|-----------------|
A|-----------------|
D|-----555-----555-|
G|-777-555-444-555-|
B|-777-333-444-333-| 4x
E|-555-----222-----|

solo:
e|-----------|
A|-----------|
D|---7-7-7---|
G|-7-7-7-7---| 8x
B|-7-5-6-5---|
E|-5---------|


despues hace un montonaso de cosa con palanca, distorcion que son
un quilombo (hace distorcion siempre en la misma nota).
D|-14-|y despues en la D|-15-| y sube y baja entre
 los dos,escuchen el tema

aca va la letra:

deja que penetre en tu oido
que rebote como aromas
deja que penetre en tu oido
que rebote como aromas

ese zumbido del silencio 
lo que esta dentro del cuerpo
ese zumbido del silencio
lo que esta por estallar

uuaa uuaaa uuaaa uuaaaa

entre los dientes tengo un zumbido
el silencio que mastico
entre los dientes tengo un zumbido
el silencio que mastico

ese zumbido del silencio 
lo que esta dentro del cuerpo
ese zumbido del silencio
lo que esta por estallar

uuaa uuaaa uuaaa uuaaaa


aclaracion:del solo no estoy muy seguro y los tiempos estan en 
'contagiandose...'.

Eso es todo, para comentarios, pedidos, puteadas, correcciones, etc. 
mandenmen un mail a gustavomenin@
Suggest correction
Give kudos to tab author, rate the tab!
1 2 3 4 5
comments
print report bad tab
guest
You may want to rate the tab now too:
select rating
Wanna post a correction for this tab? Suggest correction