Oops, an error
Loading. Please wait.

Extraterrestre Tab

52 views 3 this week
no commentswrite comment
1 2 3 4 5
3 more votes to show rating
add to favorites
launch autoscroll
font size
0
reset
how to read this tab
guitar tuner
×
Best way to learn
"Extraterrestre"
Autoscroll
slow
fast
+/-
esc
set tempo
stop
INTRO
e--------------------
B--------------------
G--------------------
D-----7-9-7-9/11-11--
A-7-9----------------
E--------------------

BASE
e-5-5--5-4-3-2--2/7/2--2/7/2--
B-5-5--5-4-3-2--2/7/2--2/7/2--
G-6-6--6-3-4-3--3/5/3--3/5/3--
D-7-7--7-6-5-4--4/6/4--4/6/4--
A-7-7--7-6-5-4--4/6/4--4/6/4--
E-5-5--5-4-3-2--2/7/2--2/7/2--

RIFF 1
e-----------------------------------
B-9-9-10-9-------------------9-11-9-
G-----------11-9-----------9--------
D-----------------9--9-9-9----------
A-----------------------------------
E-----------------------------------

RIFF 2
e--------------------------
B-12-12-12-14--12-12-14-12-
G--------------------------
D--------------------------
A--------------------------
E--------------------------

FINAL
e-6-6-6/7--6-6-6/7--6-6-6/7/6/7--6-6-6/4-
B-6-6-6/7--6-6-6/7--6-6-6/7/6/7--6-6-6/4-
G-7-7-7/8--7-7-7/8--7-7-7/8/7/8--7-7-7/5-
D-8-8-8/9--8-8-8/9--8-8-8/9/8/9--8-8-8/6-
A-8-8-8/9--8-8-8/9--8-8-8/9/8/9--8-8-8/6-
E-6-6-6/7--6-6-6/7--6-6-6/7/6/7--6-6-6/4-

INTRO

BASE (X4)

E         F#
 No soy Racista
E          F#
 No soy Un Diputado
E          F#
 No soy de la Seguridad
E          F#
 No soy un Nazi

E          F#
 No soy un empresario
E       F#
 No soy un corrupto
E          F#
 No soy de la televisión
E          F#
 No soy un drogadicto

D               C#        C
 Solo vengo a decirte que soy
F#         A#       F#         A#
 Un extraterrestre!
F#         A#       F#         A#
 Un extraterrestre!
   F#            A# F#      A#
 Y vengo a destruir este planeta
F#      A#
 Ja, ja ja
F#           A#
 Ja ja ja ja ja

E          F#
 No soy un terrorista
E       F#
 No soy comunista
E          F#               E
 No soy de la nueva generación
           F#
 No soy el de las bombas

 BASE (X4)

 RIFF 1 (X2) - RIFF 2 (X4)

D               C#        C
 Solo vengo a decirte que soy
F#         A#       F#         A#
 Un extraterrestre!
F#         A#       F#         A#
 Un extraterrestre!
   F#            A# F#      A#
 Y vengo a destruir este planeta
F#      A#
 Ja, ja ja
F#           A#
 Ja ja ja ja ja

F#         A#
 LA, LA ra LA
F#         A#
 LA, LA ra LA
F#         A#
 LA, LA ra LA
F#         A#
 LA, LA ra LA

FINAL
Suggest correction
Give kudos to tab author, rate the tab!
1 2 3 4 5
comments
print report bad tab
guest
You may want to rate the tab now too:
select rating
Wanna post a correction for this tab? Suggest correction