Oops, an error
Loading. Please wait.

Filadelfia Bass Tab

26 views 1 this week
no commentswrite comment
1 2 3 4 5
3 more votes to show rating
add to favorites
launch autoscroll
font size
0
reset
guitar tuner
Autoscroll
slow
fast
+/-
esc
set tempo
stop
Help us to improve Ultimate-Guitar.com Take our survey!
×
Esta es una cancion en la ke ni se nota el bajo...ya
que sigue a la guitarra y tiende a perderse...
Intro:
G-----------------|
D-----------------|
A-5-5-5-5-5-5-5-5-| x4
E-----------------|
Aki empieza el canto de XmF:
G---------------------------------
D--------------------------------- x4
A-----------------7-7-7-7-7-7-7-7-
E-5-5-5-5-5-5-5-5-----------------

G---------------------------------
D---------------------------------
A--------------------------------- x3
E-2-2-2-2-2-2-2-2-1-1-1-1-1-1-1-1-

G---------------------------------
D--------------------------------- x2
A-----------------7-7-7-7-7-7-7-7-
E-5-5-5-5-5-5-5-5-----------------

G---------------------------------
D---------------------------------
A---------------------------------
E-2-2-2-2-2-2-2-2-2-2-2-2-2-2-2-2-

G---------------------------------
D--------------------------------- x4
A-----------------7-7-7-7-7-7-7-7-
E-5-5-5-5-5-5-5-5-----------------

G---------------------------------
D---------------------------------
A--------------------------------- x3
E-2-2-2-2-2-2-2-2-1-1-1-1-1-1-1-1-

G---------------------------------
D--------------------------------- x2
A-----------------7-7-7-7-7-7-7-7-
E-5-5-5-5-5-5-5-5-----------------

G---------------------------------
D---------------------------------
A---------------------------------
E-2-2-2-2-2-2-2-2-2-2-2-2-2-2-2-2-

G---------------------------------
D--------------------------------- x7
A-----------------7-7-7-7-7-7-7-7-
E-5-5-5-5-5-5-5-5-----------------

G--------------------------------
D--------------------------------
A------------------7---5---4-----
E-5-5-5-5-5-5-5-5--------------5-

Facil y bonito...saluos pa toos...aguante eoy...dudas
otroyoiano_ppg@ con algo tan facil, no
creo ke sea de utilidad
Suggest correction
Give kudos to tab author, rate the tab!
1 2 3 4 5
comments
print report bad tab
guest
You may want to rate the tab now too:
select rating
Wanna post a correction for this tab? Suggest correction