Oops, an error
Loading. Please wait.

Fuck You Bass Tab

26 views 1 this week
no commentswrite comment
1 2 3 4 5
3 more votes to show rating
add to favorites
launch autoscroll
font size
0
reset
guitar tuner
Autoscroll
slow
fast
+/-
esc
set tempo
stop
Help us to improve Ultimate-Guitar.com Take our survey!
×
Fuck You. Sumo

Es la version ke hace ExOxY de ese excelentisimo tema.

INTRO(uno, due, tre, quattro!!)
G-----------------------------------------------------------------
D-----------------------------------------------------------------
A-----------------------------------------------------------------
E--0-0-0-3-0-5---0-0-0-3-3-2---0-0-0-3-0-5----0(PM)---------------

wuaahahaha!!!

G-----------------------------------------------------------------
D-----------------------------------------------------------------
A-----------------------------------------------------------------
E--0-0-0-3-0-5---0-0-0-3-3-2---0-0-0-3-0-5----0(PM)---------------

Parte de canto('sabes ke siento?' y 'cuando te veo...')

G-----------------------------------------------------------------
D-----------------------------------------------------------------
A-----------------------------------------------------------------
E--0-0-0-3-0-5---0-0-0-3-3-2---0-0-0-3-0-5---0-0-0-3-3-2----------

Naranananaa gol gol gol gol gol. FUCK YOU!!

G-----------------------------------------------------------------
D-----------------------------------------------------------------
A----5-5-5-5-5-0-2-3-4-4-4-4-4------------------------------------
E-----------------------------------------------------------------
despues de esto:

G-----------------------------------------------------------------
D-----------------------------------------------------------------
A-----------------------------------------------------------------
E--0-0-0-3-5---0-0-0-3-5---0-0-0-3-2-0----------------------------

vuoooo!!!

mjummmjummjjumumjm!!(vuelve a empezar canto)


Solo de cristian(se toca lo mismo ke en la parte de canto...pero mucho mas rapido)

G-----------------------------------------------------------------
D-----------------------------------------------------------------
A-----------------------------------------------------------------
E--0-0-0-3-0-5---0-0-0-3-3-2---0-0-0-3-0-5---0-0-0-3-3-2----------
Naranananaa gol gol gol gol gol. FUCK YOU!!

G-----------------------------------------------------------------
D-----------------------------------------------------------------
A----5-5-5-5-5-0-2-3-4--------------------------------------------
E-----------------------------------------------------------------
despues de esto:

G------------------------------------------------------------------
D------------------------------------------------------------------
A------------------------------------------------------------------
E--0-0-0-3-5---0-0-0-3-5---0-0-0-3-2-0-----------------------------

vuoooo!!!


G-------------------------------------------------------------------
D-------------------------------------------------------------------
A-------------------------------------------------------------------
E--0-0-0-3-5---0-0-0-3-5---0-0-0-3-2-0------------------------------


fuck you!!!fuck you!!! y se termino!

Espero ke les haya servido...es bastante facil, solo hay ke fijarse las partes 
donde se tocan las mismas notas, pero en algunas lenta y otras rapidas.
los tiempos estan en 'contagiandose...'
Suerte! cualkier comentario, duda, correcion, etc...
cccp@

PM: palm muted.

aguante exoxy!
Suggest correction
Give kudos to tab author, rate the tab!
1 2 3 4 5
comments
print report bad tab
guest
You may want to rate the tab now too:
select rating
Wanna post a correction for this tab? Suggest correction