Oops, an error
Loading. Please wait.

Fuck You Tab

30 views 1 this week
no commentswrite comment
1 2 3 4 5
3 more votes to show rating
add to favorites
launch autoscroll
font size
0
reset
how to read this tab
guitar tuner
Autoscroll
slow
fast
+/-
esc
set tempo
stop
Help us to improve Ultimate-Guitar.com Take our survey!
×
Aca esta la misma canción, pero corregida. Ya saben, Herrar es Umano

INTRO: [(MI - SOL - LA) MI] X2

Base
e----------------------------------------------
B----------------------------------------------
G----------------------------------------------
D--2-x--5-x--7---2-x--5-x--7---2-x--5-x--7---2-
A--2-x--5-x--7---2-x--5-x--7---2-x--5-x--7---2-
E--0-x--3-x--5---0-x--3-x--5---0-x--3-x--5---0-

Estribillo

e------------------------------
B------------------------------
G--7-7-7-7-7-7-7-7--6-6-6-6-6--
D--7-7-7-7-7-7-7-7--6-6-6-6-6--
A--5-5-5-5-5-5-5-5--4-4-4-4-4--
E------------------------------

Inter
e----------------------------------------
B----------------------------------------
G----------------------------------------
D-2-2--5--7---2-2--5--7---2-2--5--7---2--
A-2-2--5--7---2-2--5--7---2-2--5--7---2--
E-0-0--3--5---0-0--3--5---0-0--3--5---0--


Solo (Continua abajo)

e------------------------------------------------------------------------------------------
B------------------------------------------------------------------------------------------
G-13-13-13-13-13-13-14-14-13-13-13-14-16-14-13-14--13-13-13-13-13-13-14-14-13-14-13-14-16--
D------------------------------------------------------------------------------------------
A------------------------------------------------------------------------------------------
E------------------------------------------------------------------------------------------

e-19-17---------------------19-17--------------------------
B-------21-19----------19---------21-19-17-----------------
G-------------16-18-16---------------------20-18-16-16-16--
D----------------------------------------------------------
A----------------------------------------------------------
E----------------------------------------------------------

INTRO: |E E G A|E E G A|E E G A|   E   |X2

(Sobre Base)
Sabes que siento, dentro mío
me siento enloquecido
Y este sentimiento, no para, por nada
Vamos (Vamos)
No te cruces en mi camino
Lo único que quiero es ir...
Ah!!!!

(Sobre estribillo)
Yeah, yeah, yeah, yeah, yeah, yeah, yeah, yeah
Gol, gol, gol, gol, gol
(Sin tocar)
Fuck You!

Inter (x2)

(Sobre Base)
Cuando te veo a la mañana
No quiero verte
No me gusta nadie
(Sin tocar)
Joder, joder, joder, joder, joder, joder, joder, joder
(Sobre Base)
Joder!!!


(Sobre estribillo)
Yeah, yeah, yeah, yeah, yeah, yeah, yeah, yeah
Gol, gol, gol, gol, gol
(Sin tocar)
Fuck You!

Inter (x2)

Solo

(Sobre estribillo)
Yeah, yeah, yeah, yeah, yeah, yeah, yeah, yeah
Gol, gol, gol, gol, gol
(Sin tocar)
Fuck You!

Referencias:
/ = Deslizar hasta la cuerda indicada (Slide)
b = Estirar a cuerda hasta cnseguir el sonido indicado (Bending)
x = Tocar la nota anterior apagada (Palm Muted)


Eso es todo, para comentarios, pedidos, puteadas, correciones, etc. 
mandenmen un mail a neotokio3@

AGUANTE EL OTRO YO!!!!
LA CUMBIA ES UNA MIERDA!!!!
Suggest correction
Give kudos to tab author, rate the tab!
1 2 3 4 5
comments
print report bad tab
guest
You may want to rate the tab now too:
select rating
Wanna post a correction for this tab? Suggest correction