Oops, an error
Loading. Please wait.

Hey Tonto Tab

19 views 1 this week
no commentswrite comment
1 2 3 4 5
3 more votes to show rating
add to favorites
×
Save as Personal and add changes to this tab that will be seen only by you. Learn more ›
×
You can save this tab as Personal to edit and correct it or add notes. All changes will be seen only by you. Learn more »
save as personal
new!
launch autoscroll
font size
0
reset
how to read this tab
guitar tuner
Autoscroll
slow
fast
+/-
esc
set tempo
stop
RIFF 1
e----------------------------
B----------------------------
G----------------------------
D-7-7-5-5-2-2---7-7-5-5-8-8--
A-7-7-5-5-2-2---7-7-5-5-8-8--
E-5-5-3-3-0-0---5-5-3-3-6-6--

RIFF 2
e------------------------
B------------------------
G------------------------
D------3-3---6-6--11-11--
A-5-5--1-1---4-4---9--9--
E-3-3--------------------

RIFF 2'
e---------------------------------------
B---------------------------------------
G---------------------------------------
D----------------------3-6-11----3-6-11-
A---1-4-9----1-4-9---5-1-4--9--5-1-4--9-
E-3--------3---------3---------3--------

RIFF 3
e----------------------
B----------------------
G----------------------
D------3-3--------4-4--
A-5-5--1-1---6-6--2-2--
E-3-3--------4-4-------

FINAL
e-----------
B-----------
G-----------
D--------5--
A-7-7-7--3--
E-5-5-5-----

(Sobre RIFF 1)
Hey tonto! dónde está tu chica ahora?
hey tonto! no está donde tú la dejaste
hey tonto! seguro estás enamorado
hey tonto! sus padres tienen otros planes.

(Sobre RIFF 2)
Tomalo con calma, y empieza a pensar
(Sobre RIFF 3)
Podría buscarla, en la puerta de tu casa
                   (Sobre RIFF 2)
Para ver si entra, o si sale

(Sobre RIFF 1)
Hey tonto! dónde está tu chica ahora?
hey tonto! no está donde tú la dejaste
hey tonto! seguro estás enamorado
hey tonto! sus padres tienen otros planes.

(RIFF 2')
Podria poner microfonos en sus ropas
para escuchar las conversaciones
(Sobre RIFF 2)
Voy a enloquecer, una locura
(Sobre RIFF 3)
podría matarla, 
porque si no es mía no es de nadie
porque si no es mía no es de nadie

(Sobre RIFF 1)
Hey tonto! dónde está tu chica ahora?
hey tonto! no está donde tú la dejaste
hey tonto! seguro estás enamorado
hey tonto! sus padres tienen otros planes.

(Sobre RIFF 2)
Tomalo con calma, y empieza a pensar
podría matarla, 
(Sobre RIFF 3)
porque si no es mía no es de nadie
porque si no es mía no es de nadie

(Sobre RIFF 1)
Hey tonto! dónde está tu chica ahora?
hey tonto! no está donde tú la dejaste
hey tonto! seguro estás enamorado
hey tonto! sus padres tienen otros planes.

(Sobre RIFF 2)
Tomalo con calma, y empieza a pensar
(RIFF 3)
podría matarla, 
(RIFF 2)
porque si no es mía no es de nadie
(RIFF 3)
porque si no es mía no es de nadie
(RIFF 2)      (RIFF 3)
nadie, nadie, nadie, nadie

FINAL

Eso es todo, para comentarios, pedidos, puteadas, etc. mandenmen un mail 
a neotokio3@

AGUANTE EL OTRO YO!!!!
LA CUMBIA ES UNA MIERDA!!!!
Suggest correction
Give kudos to tab author, rate the tab!
1 2 3 4 5
comments
print report bad tab
guest
Wanna post a correction for this tab? Suggest correction