Oops, an error
Loading. Please wait.

La Tetona Tab

16 views 1 this week
no commentswrite comment
1 2 3 4 5
3 more votes to show rating
add to favorites
launch autoscroll
font size
0
reset
how to read this tab
guitar tuner
Autoscroll
slow
fast
+/-
esc
set tempo
stop
Help us to improve Ultimate-Guitar.com Take our survey!
×
Aca esta la misma canción, pero corregida. 
Ya saben, Herrar es Umano

INTRO

e--------------------
B--------------------
D--------------------
G--------------------
A--------------------
E-2--5-5--2-5-2-2--5-


Riff 1
e----------------
B----------------
D----------------
G----------------
A----------------
E-2--5-5--2-5-2-2

Riff 2                     
                                          
e--------------------------------------
B--------------------------------------
D--------------------------------------
G--------------------------------------
A-4-4-4-4-7-7-6-6-5-5-4-4-4-4-7-7-6-6-5
E-2-2-2-2-5-5-4-4-3-3-2-2-2-2-5-5-4-4-3


Riff 3
e---------------------------------------------------------
B---------------------------------------------------------
D---------------------------------------------------------
G------------------------------------------2--5-----------
A------------------------------------2--5-----------------
E-Riff 1--2b3--Riff 1--4b5--Riff 1----------------Riff 1--


INTRO (X4)

RIFF 1
       En una bañera 
RIFF 1
       con agua caliente
RIFF 1 
       tengo la espuma
RIFF 1 
       y una ¡TE-TO-NA!


INTRO
       Trabajo al mediodía
RIFF 1
       con una bobina
RIFF 1 
       no quiero mas tetonas
RIFF 1 
       quiero ¡Culona!

--Sobre Riff 2--
Chupa chupa chupa
Chupa chupa 
Chupa chupame

Chupa chupa chupa
Chupa chupa 
Chupa chupame

RIFF 3

--Sobre Riff 2--
Chupa chupa chupa
Chupa chupa 
Chupa chupame

Chupa chupa chupa
Chupa chupa 
Chupa chupame

Referencias:
/ = Deslizar hasta la cuerda indicada (Slide)
b = Estirar a cuerda hasta cnseguir el sonido indicado (Bending)
x = Tocar la nota anterior apagada (Palm Muted)

Eso es todo, para comentarios, pedidos, puteadas, etc. 
mandenmen un mail a neotokio3@

AGUANTE EL OTRO YO!!!!
LA CUMBIA ES UNA MIERDA!!!!
Suggest correction
Give kudos to tab author, rate the tab!
1 2 3 4 5
comments
print report bad tab
guest
You may want to rate the tab now too:
select rating
Wanna post a correction for this tab? Suggest correction