Oops, an error
Loading. Please wait.

Licuadora Mutiladora Bass Tab

26 views 1 this week
no commentswrite comment
1 2 3 4 5
3 more votes to show rating
add to favorites
launch autoscroll
font size
0
reset
guitar tuner
×
Best way to learn
"Licuadora Mutiladora"
Autoscroll
slow
fast
+/-
esc
set tempo
stop
Buena...aki les va:

G-0-0-0-0-------------------------|
D---------4-4-4-4-0-0-0-0---------|  x5
A-------------------------0-0-0-0-|
E---------------------------------|

G-------------------------------|
D-------------------------------|
A--------------5--2---4--4-4-4--| x4
E-0--5--3-----------------------|

G-0-0-0-0-------------------------|
D---------4-4-4-4-0-0-0-0---------|  x3
A-------------------------0-0-0-0-|
E---------------------------------|

G-------------------------------|
D-------------------------------|
A--------------5--2---4--4-4-4--| x4
E-0--5--3-----------------------|

G-----------------------------------------------|
D-----------------------------------------------| x3
A---5---------5---------5-----------------------|
E-0---3-5-0-0---3-5-0-0---3-5-0-6-6-6-6-6-5-3-0-|

G-------------------------------------------|
D-------------------------------------------| x1
A---5---------5---------5-------------------|
E-0---3-5-0-0---3-5-0-0---3-5-0-6-6-6-6-6-5-|

G-0-0-0-0-------------------------|
D---------4-4-4-4-0-0-0-0---------|  x4
A-------------------------0-0-0-0-|
E---------------------------------|

G-------------------------------|
D-------------------------------|
A--------------5--2---4--4-4-4--| x4
E-0--5--3-----------------------|

G-----------------------------------------------|
D-----------------------------------------------| x4
A---5---------5---------5-----------------------|
E-0---3-5-0-0---3-5-0-0---3-5-0-6-6-6-6-6-5-3-0-|

G-----------------------------------------------|
D-----------------------------------------------| x2
A-----------------------------------------------|
E-0-------0-0-------0-0-------0-6-6-6-6-6-5-3-0-|

G-----------------------------------------------|
D-----------------------------------------------| x4
A---5---------5---------5-----------------------|
E-0---3-5-0-0---3-5-0-0---3-5-0-6-6-6-6-6-5-3-0-|

Eso es todo...Aio...
Ves, no puede ser tan dificil voy a olvidar todo lo
que paso, hacer canciones nuevas y escribirte mil
poemas...Les ondes martenot, estacionaria
Suggest correction
Give kudos to tab author, rate the tab!
1 2 3 4 5
comments
print report bad tab
guest
You may want to rate the tab now too:
select rating
Wanna post a correction for this tab? Suggest correction