Oops, an error
Loading. Please wait.

Licuadora Mutiladora Tab

version 1
version 1

Whole song

12 views 1 this week
no commentswrite comment
1 2 3 4 5
3 more votes to show rating
add to favorites
launch autoscroll
font size
0
reset
how to read this tab
guitar tuner
×
Best way to learn
"Licuadora Mutiladora"
Autoscroll
slow
fast
+/-
esc
set tempo
stop
Aki ta:

e----------------------------------
B-8-8-8-8-7-7-7-7-3-3-3-3----------
G-------------------------2-2-2-2-- x5
D----------------------------------
A----------------------------------
E----------------------------------

e---------------------
B---------------------
G-------7-4-6---6-6-6- x4
D-2-7-5-7-4-6---6-6-6-
A-2-7-5-5-2-4---4-4-4-
E-0-5-3---------------

e----------------------------------
B-8-8-8-8-7-7-7-7-3-3-3-3----------
G-------------------------2-2-2-2-- x3
D----------------------------------
A----------------------------------
E----------------------------------

e---------------------
B---------------------
G-------7-4-6---6-6-6- x4
D-2-7-5-7-4-6---6-6-6-
A-2-7-5-5-2-4---4-4-4-
E-0-5-3---------------

e---------------------------------------------
B---------------------------------------------
G---7---------7---------7---------------------
D-2-7-5-7-2-2-7-5-7-2-2-7-5-7-8-8-8-8-8-7-5-2- x4
A-2-5-5-7-2-2-5-5-7-2-2-5-5-7-8-8-8-8-8-7-5-2-
E-0---3-5-0-0---3-5-0-0---3-5-6-6-6-6-6-5-3-0-

e----------------------------------
B-8-8-8-8-7-7-7-7-3-3-3-3----------
G-------------------------2-2-2-2-- x4
D----------------------------------
A----------------------------------
E----------------------------------

e---------------------
B---------------------
G-------7-4-6---6-6-6- x4
D-2-7-5-7-4-6---6-6-6-
A-2-7-5-5-2-4---4-4-4-
E-0-5-3---------------

e---------------------------------------------
B---------------------------------------------
G---7---------7---------7---------------------
D-2-7-5-7-2-2-7-5-7-2-2-7-5-7-8-8-8-8-8-7-5-2- x4
A-2-5-5-7-2-2-5-5-7-2-2-5-5-7-8-8-8-8-8-7-5-2-
E-0---3-5-0-0---3-5-0-0---3-5-6-6-6-6-6-5-3-0-

e---------------------------------------------
B---------------------------------------------
G---------------------------------------------
D-2-------2-2-------2-2-------8-8-8-8-8-7-5-2- x2
A-2-------2-2-------2-2-------8-8-8-8-8-7-5-2-
E-0-------0-0-------0-0-------6-6-6-6-6-5-3-0-

e---------------------------------------------
B---------------------------------------------
G---7---------7---------7---------------------
D-2-7-5-7-2-2-7-5-7-2-2-7-5-7-8-8-8-8-8-7-5-2- x4
A-2-5-5-7-2-2-5-5-7-2-2-5-5-7-8-8-8-8-8-7-5-2-
E-0---3-5-0-0---3-5-0-0---3-5-6-6-6-6-6-5-3-0-
Suggest correction
Give kudos to tab author, rate the tab!
1 2 3 4 5
comments
print report bad tab
guest
You may want to rate the tab now too:
select rating
Wanna post a correction for this tab? Suggest correction