Oops, an error
Loading. Please wait.

Licuadora Mutiladora Tab

version 2
version 2

Whole song

Interactive

13 views 1 this week
no commentswrite comment
1 2 3 4 5
3 more votes to show rating
add to favorites
×
Save as Personal and add changes to this tab that will be seen only by you. Learn more ›
×
You can save this tab as Personal to edit and correct it or add notes. All changes will be seen only by you. Learn more »
save as personal
new!
launch autoscroll
font size
0
reset
how to read this tab
guitar tuner
Autoscroll
slow
fast
+/-
esc
set tempo
stop
INTRO:
1:-----5-5-5-5-5-5-5-5-5-5-5-5-5-5-5-5
2:----8-8-8-8-7-7-7-7-3-3-3-3-0-0-0-0-
3:------------------------------------

riff 1:
1:-----------------
2:-----------------
3:--------7-4-6-6-6
4:-2-7-5--7-4-6-6-6  X4
5:-2-7-5--5-2-4-4-4
6:-0-5-3-----------

riff 2:
1:---------     -----------------------------
2:---------     -----------------------------
3:------6--     ---------6-------------------
4:-2-2--6-5  X3 ----2-2--6-5-7-8-8-8-8-7-5-2-  X1
5:-2-2--4-5     ----2-2--4-5-7-8-8-8-8-7-5-2-
6:-0-0----3     ----0-0----3-5-6-6-6-6-5-3-0-

riff 3:
1:---------------------
2:---------------------
3:---------------------
4:-2-2---2-2---2-2----- x2
5:-2-2---2-2---2-2-----
6:-0-0---0-0---0-0-----

INTRO
todos eso niños que estan perdidos
y a los que gobiernan no les importa nada
cuando decidamos nuestra union
ya no estaremos solos

RIFF1


INTRO
Chicos inundados en la escuela
corretiando sin maestra
lalalala
como se contruye esta nacion
con tantos enemigos

RIFF1

RIFF2
los intereses explortadores
provocan hambre y desigualdad
la delincuencia pala y violencia
es convivir con la normalidad
la licuadora de nuestra historia
no horroriza sin identidad
la cacerola palos de goma
tragando inijusticia

INTRO
pensadores idealistas honestos luchadores
han dejado sus vidas aqui por un lugar mejor
cuantos mas tienen que morir
han muerto han muerto

RIFF1
asesinos!!

RIFF2
los excluidos que el poder mata
son los desechos de el mundo global
LA licuadora mutiladora
destruye todo con impunidad
es la impotencia es la violencia
el resultado generacional
tomando vidas chupando mentes
estamos en la mira

RIFF3
beben beben beben
beben beben nuestra sangre
quieren quieren nuestra sangre
beben beben nuestra sangre
sangre sangre


REFERENCIAS:

  F#5 G#5 D5   B5  C#5
1: -   -   -   -   -
2: -   -   -   -   -
3: -   -   7   4   6
4: 4   6   7   4   6
5: 4   6   5   2   4
6: 2   4   -   -   -

El OTRO YO la mejor banda del robk argentino

el tema es uno de los mejores y es muy complicado
tocarlo sobreto la parte del intro asi que fijate si queda mejor
con dos guitarras

suerte espero que les guste esta tablatura y toquensela a cualquier
gil que no le guste EOY

MIKE-X(miguel_nirvi@
Suggest correction
Give kudos to tab author, rate the tab!
1 2 3 4 5
comments
print report bad tab
guest
Wanna post a correction for this tab? Suggest correction