Oops, an error
Loading. Please wait.

Lo De Adentro Vivo Tab

2 views 1 this week
no commentswrite comment
1 2 3 4 5
3 more votes to show rating
add to favorites
launch autoscroll
font size
0
reset
how to read this tab
guitar tuner
×
Best way to learn
"Lo De Adentro Vivo"
Autoscroll
slow
fast
+/-
esc
set tempo
stop
Aquí va una corrección, porque la que ya está no me gusta como suena
Espero que les guste ;) ( Herrar es Umano,no?)


RIFF I:

E|----------------------------------------------------------------||
B|-------3---------------------------------3----------------------||
G|-----0-----1-0-------0---------0-------0-----1-0-------0--------||
D|---4-----2---------0---------0-------4-----2-------4-------4/5--||
A|-5-------------0-2-----2-2/5-----0-5-------------0---5---5-----5||
E|----------------------------------------------------------------||


RIFF II:

                                    *CODA
E|----------------------------------|------------------------------||
B|-------3--------------------------|------3-----------------------||
G|-----0-----1-0-------0---------0--|----0-----1-0-------------7-7-||
D|---4-----2---------0---------0----|--4-----2-------4-4-4-4-5-7-7-||
A|-5-------------0-2-----2-2/5-----0|5-------------0-4-4-4-4-5-5-5-||
E|----------------------------------|----------------2-2-2-2-3-----||

Estructura de la canción:

INTRO:  RIFF I  x2
VERSO1: RIFF I  x1
CORO :  RIFF II x1
VERSO2: RIFF I  x1
CORO:   RIFF II x1 Y *CODA x2

LETRA:

(verso 1)
Lo de adentro, se te está escapando,
Hacia arriba, hacia arriba...

(coro)
A tu alrededor todos te adoran,
No te vayas, no te vayas.

(verso 2)
Más allá de las estrellas
Nos mirarás, nos mirarás...

(coro)
A tu alrededor todos te adoran,
No te vayas, no te vayas.


Gracias eso es  o correcciones a mi mail, chau.
Suggest correction
Give kudos to tab author, rate the tab!
1 2 3 4 5
comments
print report bad tab
guest
You may want to rate the tab now too:
select rating
Wanna post a correction for this tab? Suggest correction