Oops, an error
Loading. Please wait.

Luces Chords

33 views 1 this week
no commentswrite comment
1 2 3 4 5
3 more votes to show rating
add to favorites
×
Save as Personal and add changes to this tab that will be seen only by you. Learn more ›
×
You can save this tab as Personal to edit and correct it or add notes. All changes will be seen only by you. Learn more »
save as personal
new!
launch autoscroll
font size
0
reset
transpose
0
reset
display chords
guitar tuner
Autoscroll
slow
fast
+/-
esc
set tempo
stop
Strumming
There is no strumming pattern for this song yet. and get +5 IQ
Intro: E G A G X2  D

A)D
   Regresa tu magia hoy
   G             D
   me devuelve a mí
   luces tu luces hoy
   G               D
   me acaricia el sol

B)E*      D         G
  me dañara me dañara
  E*      D         G  D
  me dañara me dañara

A)D
   El viento es tu voz 
   G               D
   que te acerca a mí
   flores florecen hoy
   G               D
   descubro un jardín

b)que crecerá que crecerá
  que crecerá que crecerá

Solo:
e----------------------------------------------------
b-9-7----9-7----9-7----------9-7------9-7----7-------
g-----10-----10-----10-6-8-6-----10-8-----10---8-6---   
d----------------------------------------------------
a----------------------------------------------------     (x2)
e----------------------------------------------------  

E  G  A  G x2  D

a)Regresa...

b)me dañara...

Solo. Fin

Los acordes son los siguientes:
  E   G   A   D   E*
e-x---x---x---x---x------------
b-x---x---x---7---9------------
g-1---4---6---7---9------------
d-2---5---7---7---9------------
a-2---5---7---5---7------------
e-0---3---5---5---7------------

Para que entiendan el rasgueo y los tiempos escuchen el tema.
Cualquier consulta o reclamo al e-mail. 
Un abrazo desde San Bernardo(Chile) . 
Un beso para mi Ale. Chao
Suggest correction
Give kudos to tab author, rate the tab!
1 2 3 4 5
comments
print report bad tab
guest
Wanna post a correction for this tab? Suggest correction