Oops, an error
Loading. Please wait.

Luz Tab

10 views 3 this week
no commentswrite comment
1 2 3 4 5
3 more votes to show rating
add to favorites
launch autoscroll
font size
0
reset
how to read this tab
guitar tuner
×
Best way to learn
"Luz"
Autoscroll
slow
fast
+/-
esc
set tempo
stop
LUZ- VERCION DE EL OTRO YO PARA LOS 15 AÑOS DE ATTAQUE77

Intro: [E-C5-B5] X2

riff

 C
----------------------------------
----------------------------------
----------------------------------
----------------------------------
-3-5-5-7-7-9----------------------
----------------------------------

soñandote...  amar por...
[E-B5-C5] x2 A5-C#5-D5-A5-E
nunca crei... me vi atravezando...  obsevandote
[E-B5-C5] x2 [A5-C#5-D5-A5] X2 -     E
y no quise pensar...
B5--A5--B5--C#5-B5-A-C#5-B5


solo

 F#       A          C#
------------------------------11-12-11----11------
-7-7--5---10-10--9---14-14--14---------14----14---
--------------------------------------------------
--------------------------------------------------
--------------------------------------------------
--------------------------------------------------
 F#       A         C#               F#       A
----------------------------------------------------12--------
-7-7--5---10-10--9--14--9-7-9-7-5----7-7--5---10-10-----------
--------------------------------------------------------------
--------------------------------------------------------------
--------------------------------------------------------------
--------------------------------------------------------------
 Em
---------------------------------------------------
-5-5-5-5-5-5-5---5---5-5-5-5---5---5-7-8-7-5-5-----
---------------7---7---------7---7----------7------
---------------------------------------------------
---------------------------------------------------
---------------------------------------------------
como explicar... y asi tengo...     escuchandote, observandote...
[E-B5-C5] x2    [A5-C#5-D5-A5] X2 -E-A5-E-A5-C5-B5-E


soñandote como necesidad
pensandote igual que el respirar
amar por instinto es tan natural
escuchandote

nunca crei en la casualidad
que nos unio en la causalidad
me vi atravezando caminos al sur
te vi iluminando mi tiempo sin luz
observandote

y no quise pensar
si algo de mi te habia importado
tan solo fui feliz
estando tanto tiempo a tu lado

como explicar lo que es para sentir
no hay un final si nada empieza al fin
y asi tengo mucho mas de lo que pedi
voy acostumbrandome a vivir asi
escuchandote, observandote y extrañandote
Suggest correction
Give kudos to tab author, rate the tab!
1 2 3 4 5
comments
print report bad tab
guest
You may want to rate the tab now too:
select rating
Wanna post a correction for this tab? Suggest correction