Oops, an error
Loading. Please wait.

Madurar Tab

10 views 1 this week
no commentswrite comment
1 2 3 4 5
3 more votes to show rating
add to favorites
launch autoscroll
font size
0
reset
how to read this tab
guitar tuner
Autoscroll
slow
fast
+/-
esc
set tempo
stop
Help us to improve Ultimate-Guitar.com Take our survey!
×
INTRO
1 -11-9-7--11-9-7-7-9-7--11-9-7--11-11-9-7-9-7--------- 
1 -12-9-7--12-9-7-7-9-7--12-9-7--12-12-9-7-9-7--------- 
3 -----------------------------------------------------
4 -----------------------------------------------------
5 -----------------------------------------------------
6 -----------------------------------------------------

VERSO
1 ------5----------------------------------------------
2 -5-5-------------------------------------------------
3 -6-6--6--666666--------------------------------------
4 -7-7--7--777777--------------------------------------
5 -7-7--7--777777--------------------------------------
6 -----------------------------------------------------
      
CORO pt1
1 -----------------------------------------------------
2 ------5----------------------------------------------
3 -6-6--6--666666--------------------------------------
4 -7-7--7--777777--------------------------------------
5 -7-7--7--777777--------------------------------------
6 -----------------------------------------------------

CORO pt2
1 -----------------------------------------------------
2 -----------------------------------------------------
3 ------6--666666--------------------------------------
4 -7-7--7--777777--------------------------------------
5 -7-7--7--777777--------------------------------------
6 -5-5--5----------------------------------------------

 SOLO
1 ----------------------------------------------------- 
2 ----6---6---6-8-----6---6---6-8-6-4-6-4-------------- 
3 --7---7---7-------7---7---7--------------------------
4 -----------------------------------------------------
5 -----------------------------------------------------
6 -----------------------------------------------------


ORDER DE LA CANCION:
 INTRO x2
 VERSO x4
 INTRO x1
 VERSO x4
 CORO pt1 x4
 CORO pt2 x4
 SOLO x2
 INTRO x2
 VERSO no se escucha la guitarra
 CORO pt2 x4
 CORO pt1 x4
 CORO pt2 x4
FIN

la cancion es corta peor muy buena.
la afinacion es normal, y 
¡¡¡¡ARRIBA EL OTRO YO!!!!
la mejor banda argentina
Suggest correction
Give kudos to tab author, rate the tab!
1 2 3 4 5
comments
print report bad tab
guest
You may want to rate the tab now too:
select rating
Wanna post a correction for this tab? Suggest correction