Oops, an error
Loading. Please wait.

Melodias Vibradoras Tab

28 views 1 this week
no commentswrite comment
1 2 3 4 5
3 more votes to show rating
add to favorites
launch autoscroll
font size
0
reset
how to read this tab
guitar tuner
×
Best way to learn
"Melodias Vibradoras"
Autoscroll
slow
fast
+/-
esc
set tempo
stop
INTRO CON WHA DESPUES DEL BAJO:

e-|-X--X--X--X--X--|
B-|-10-10-10-10-10-|
G-|-X--X--X--X--X--|
D-|-7--7--7--7--7--|
A-|-X--X--X--X--X--|
E-|-X--X--X--X--X--|


e-|--------------|
B-|-2/10/2-2/8/2-|
G-|--------------|
D-|--------------|
A-|--------------|
E-|--------------|

Todas las chicas son para vos,
todas las chicas son para vos, mirales,


todas sonríen, quieren bailar,
e-|-----------21-19----19------------------------------|
B-|-/19-22-19-------22----22-19-22-19-17-19-17-14 ~----|
G-|----------------------------------------------------|
D-|----------------------------------------------------|
A-|----------------------------------------------------|
E-|----------------------------------------------------|

En la isla Hawaiai!
e-|-----------21-19----19--------------------------------|
B-|-/19-22-19-------22----22-19-22-19-17-19-17-14/17 ~---|
G-|------------------------------------------------------|
D-|------------------------------------------------------|
A-|------------------------------------------------------|
E-|------------------------------------------------------|


PUENTE 1
e-|----------------------------|
B-|----------------------------|
G-|----------------------------|
D-|-7?-7-/-9?-9-/-11--11-/-12--|
A-|-X?-X-/-X?-X-/-X?--X--/--X--|
E-|-5?-5-/-7--7-/-9---9--/-10--|
Somos polvo de estrellas,girando ando
en torbellinosdel infinito...


Entre las ramas un chico marrón
dice poemas y otros
vestidos de azul tocan:
Melodías vibradoras...


PUENTE 2
e-|------------|
B-|------------|
G-|------------|
D-|-4--5--7----|
A-|-X--X--X----|
E-|-2--3--5----|
RRRRRRRRRRRRR


Todas los chicos son para vos,
todas los chicos son para vos, besalos,
busco nuevos perfumes
FLORES ESPLENDIDAS!

Puente 1
Viajeros de trevesías cósmicas
en lso torbellinos
del infinito.

(aca hace A y asi termina)
FLORES ESPLENDIDAS!
RRRRRRRRRRRRRRR


LA CUMBIA ES UNA MIERDA
LUIS_DAMMIT
Suggest correction
Give kudos to tab author, rate the tab!
1 2 3 4 5
comments
print report bad tab
guest
You may want to rate the tab now too:
select rating
Wanna post a correction for this tab? Suggest correction