Oops, an error
Loading. Please wait.

Microcosmos Chords

30 views 1 this week
no commentswrite comment
1 2 3 4 5
3 more votes to show rating
add to favorites
launch autoscroll
font size
0
reset
transpose
0
reset
display chords
guitar tuner
×
Best way to learn
"Microcosmos"
Autoscroll
slow
fast
+/-
esc
set tempo
stop
e---------------------------------------------------------------
B---------------------------------------------------------------
G---------------------------------------------------------------
D---------------------------------------------------9--9h10r9---
A-7-9--9h10-10------------------7-9--9h10-10--9-10--------------
E---------------10-8-7--7h8r7-----------------------------------

C       G         C    G
  Esplendores del microcosmos
C         G            C     G    C
  Entusiasmados por la naturaleza
          G
  Como un explorador 
C                    G
  Que volvió de otro mundo

E F   B     C   E  F
Habla apasionadamente
B        C  E F    B   C E F B     C
de los mila-a-gros que-e-e-e presencio

     G           C
Misteriosa asociación
      G     C
De hormigas
          G      C
Emprenden exodos
            G
en busca de alimentos

[B - C]X4

D               G         C              D
Suele atraer al visitante hacia el instrumento
para hacerle observar
              G
al oculto habitante
   C   D
de una gota de agua
             G      C          D
Una criatura multicolor que se mueve
con graciosas ondulaciones.
Todo un universo
        G
todo un mundo
          C      D
que ni la imaginación
Pudiera concebir!

C      G        C
  La radiante belleza
        G
de un reflejo 
      C
indiferente
G           C      G
  "a simple vista"

e---------------------------------------------------------------
B---------------------------------------------------------------
G---------------------------------------------------------------
D---------------------------------------------------9--9h10r9---
A-7-9--9h10-10------------------7-9--9h10-10--9-10--------------
E---------------10-8-7--7h8r7-----------------------------------

E    B                    E
Explosiones (microscopio)
     B             A        A-A B  B-B E
Microcosmos (microscopicos)

                       A-A B  B-B E
(laralalala lalalala) 

Nota: Tocar sobre la canción para ubicarse mejor en la parte de 
"Habla apasionadamente..."

Eso es todo por ahora.
Para comentarios, pedidos, correciones o puteadas manden un mail 
a neotokio3@

AGUANTE EL OTRO YO
LA CUMBIA ES UNA MIERDA!!!
Suggest correction
Give kudos to tab author, rate the tab!
1 2 3 4 5
comments
print report bad tab
guest
You may want to rate the tab now too:
select rating
Wanna post a correction for this tab? Suggest correction