Oops, an error
Loading. Please wait.

Moquiento Chords

6 views 1 this week
no commentswrite comment
1 2 3 4 5
3 more votes to show rating
add to favorites
launch autoscroll
font size
0
reset
transpose
0
reset
display chords
guitar tuner
Autoscroll
slow
fast
+/-
esc
set tempo
stop
Help us to improve Ultimate-Guitar.com Take our survey!
×
intro y verso:'MI VIDA ES PEDIR...'
G|---------------|
D|-7-6-4---------|
A|-------77777---|15x
E|---------------|
'no aguanto mas...'
G|---------------|
D|-7-6-4---------|
A|-------77777---|
E|---------------|

pos-verso:'TUVE UNA FAMILIA...'
G|------------|
D|------------|
A|--------2---|15x
E|--0-2-5-----|
pre-estribillo:'uuaau...'
G|------------------------------------------------|
D|------------------------------------------------|
A|--------------------------7-6-7-6-0-------------|1x
E|--2-00-22-0-2-00-22-0-|7x|------------3/7-7-5-4-|
estribillo:'NECESITO PEGAMENTO...'
G|-------------------------------|
D|----------------------4-2------|
A|--0-2-4-00-2-4-00-2-4-----4-0--| 4x
E|-------------------------------|

intro y verso:'MIS COMPAÑEROS DE RUTA...'
G|---------------|
D|-7-6-4---------|
A|-------77777---|15x
E|---------------|

'no aguanto mas...'
G|---------------|
D|-7-6-4---------|
A|-------77777---|
E|---------------|

final:'necesito pegamento...'
(entra junto con la bateria)
G|------|-------------------------------|
D|--4-2-|----------------------4-2------|
A|0----4|--0-2-4-00-2-4-00-2-4-----4-0--| 4x
E|------|-------------------------------|


aca va la letra:
MI VIDA ES PEDIR DINERO
PERA COMPRAR PEGAMENTO
MI VIDA ES PEDIR DINERO
PERA COMPRAR PEGAMENTO

NO AGUANTO MAS!

MIS COMPAÑEROS DE RUTA
MIS COMPAÑEROS DE RUTA
MIS COMPAÑEROS DE RUTA
MUEREN CADA DIA

NO AGUANTO MAS!


TUVE UNA FAMILIA Y UN HOGAR IGUAL QUE USTEDES 
ERA UNA CASILLA EN UNA VILLA 
RECUERDOS DE MI PADRE, GOLPEANDO A MI MADRE
VIOLANDO A MI HERMANA Y A MI 
NO PUEDO DECIR QUE FUE UNA INFANCIA MUY FELIZ
FUE MUY DURO PARA MI


NECESITO PEGAMENTO EN MI NARIZ
PARA OLVIDARME DE LA MIERDA QUE HAR ALREDEDOR
MOQUIENTO, SI
MOQUIENTO ME DICEN, MOQUIENTO SOY
MOQUIENTO, SI
MOQUIENTO ME DICEN, MOQUIENTO SOY


MIS COMPAÑEROS DE RUTA
MIS COMPAÑEROS DE RUTA
MUEREN CADA DIA
VENDEN ESTAMPILLAS


NO AGUANTO MAS!
NO AGUANTO MAS!
NO AGUANTO MAS!
NO AGUANTO MAS!

NECESITO PEGAMENTO EN MI NARIZ
PARA OLVIDARME DE LA MIERDA QUE HAR ALREDEDOR
MOQUIENTO, SI
MOQUIENTO ME DICEN, MOQUIENTO SOY
OH, SI SI SI
MOQUIENTO ME DICEN, MOQUIENTO SOY
OH, SI SI SI
MOQUIENTO ME DICEN, MOQUIENTO SOY
OH, SI SI SI
MOQUIENTO ME DICEN, MOQUIENTO SOY

Eso es todo, para comentarios, pedidos, puteadas, correccion etc. 
mandenmen un mail a gustavomenin@
Suggest correction
Give kudos to tab author, rate the tab!
1 2 3 4 5
comments
print report bad tab
guest
You may want to rate the tab now too:
select rating
Wanna post a correction for this tab? Suggest correction